Oops, an error
Loading. Please wait.

Black Chandelier Bass Tab

version 2
version 2

Whole song

Interactive

13,857 views 36 this week
5 commentsread comments
1 2 3 4 5
accurate
x 9
add to favorites
launch autoscroll
font size
0
reset
guitar tuner
Autoscroll
slow
fast
+/-
esc
set tempo
stop
Help us to improve Ultimate-Guitar.com Take our survey!
×
Author
Difficulty
novice
Band: Biffy Clyro
Song: Black Chandelier
Tuning: EADG (Standard)

Timings are all based on the music video

[Intro]

Come in at 0:20

G|------------------|
D|------------------| X4
A|-7-7-7-7-7-7-7-7--|
E|------------------|


[Verse]

G|--------------------------------------------------------------|
D|--------------------------------------------------------------| X4
A|-------------------------------7-7-7-7-7-7-7-7-7-7-7-7-7-7-7-7|
E|-7-7-7-4-4-4-4-4-6-6-6-7-7-7-7--------------------------------|


[Bridge] (you left my heart....)
1:03

G|------------------------------------------------------------|
D|------------------------------------------------------------|
A|-11-11-11-11-11-11-11-10-10-10-10-10-10-10-10-9-9-9-9-9-9-9-|
E|------------------------------------------------------------|

G|------------------------------------------------|
D|------------------------------------------------|
A|-8-8-8-8-8-8-8-8-7-7-7-7-7-7-7-7-7-7-7-7-7-7-7-7|
E|------------------------------------------------|


[Chorus]

1:15

G|------------------------------------------------------------------|
D|------------------------------------------------------------------|
A|-6-6-9---------------------------6-6-9----------------------------|
E|-------7--7-7-7-7-7-7-7-7-7-7-7-7------4--4-4-4-4-4-4-4-4-4-4-4-4-|

G|------------------------------------------------------------------|
D|------------------------------------------------------------------|
A|-9-9--7--7-7-7-7-7-7-7-7-7-7-7-7-9-9------------------------------|
E|-----9-------------------------------9-4--4-4-4-4-4-4-4-4-4-4-4-4-|

G|------|
D|------|
A|-6-6-9|
E|------|


[Intro]

G|------------------|
D|------------------| X2
A|-7-7-7-7-7-7-7-7--|
E|------------------|


[Verse]

G|--------------------------------------------------------------|
D|--------------------------------------------------------------| X4
A|-------------------------------7-7-7-7-7-7-7-7-7-7-7-7-7-7-7-7|
E|-7-7-7-4-4-4-4-4-6-6-6-7-7-7-7--------------------------------|


[Bridge]

G|------------------------------------------------------------|
D|------------------------------------------------------------|
A|-11-11-11-11-11-11-11-10-10-10-10-10-10-10-10-9-9-9-9-9-9-9-|
E|------------------------------------------------------------|

G|------------------------------------------------|
D|------------------------------------------------|
A|-8-8-8-8-8-8-8-8-7-7-7-7-7-7-7-7-7-7-7-7-7-7-7-7|
E|------------------------------------------------|


[2nd Chorus]

G|------------------------------------------------------------------|
D|------------------------------------------------------------------|
A|-6-6-9---------------------------6-6-9----------------------------|
E|-------7--7-7-7-7-7-7-7-7-7-7-7-7------4--4-4-4-4-4-4-4-4-4-4-4-4-|

G|------------------------------------------------------------------|
D|------------------------------------------------------------------|
A|-9-9--7--7-7-7-7-7-7-7-7-7-7-7-7-9-9------------------------------|
E|-----9-------------------------------9-4--4-4-4-4-4-4-4-4-4-4-4-4-|


G|------------------------------------------------------------------|
D|------------------------------------------------------------------|
A|-6-6-9---------------------------6-6-9----------------------------|
E|-------7--7-7-7-7-7-7-7-7-7-7-7-7------4--4-4-4-4-4-4-4-4-4-4-4-4-|

G|--------------------------------------|
D|--------------------------------------|
A|-9-9--7--7-7-7-7-7-7-7-7-7-7-7-7-9-9--|
E|-----9-------------------------------9|


[2nd Bridge]

G|---------------------------|
D|---------------------------|
A|-44-7-44-44-7-44-44-7-44-44| X5
E|---------------------------|

come in at 3:28 with


[Intro]

G|------------------|
D|------------------| X2
A|-7-7-7-7-7-7-7-7--|
E|------------------|


[Final Chorus]

G|------------------------------------------------------------------|
D|------------------------------------------------------------------|
A|-6-6-9---------------------------6-6-9----------------------------|
E|-------7--7-7-7-7-7-7-7-7-7-7-7-7------4--4-4-4-4-4-4-4-4-4-4-4-4-|

G|------------------------------------------------------------------|
D|------------------------------------------------------------------|
A|-9-9--7--7-7-7-7-7-7-7-7-7-7-7-7-9-9------------------------------|
E|-----9-------------------------------9-4--4-4-4-4-4-4-4-4-4-4-4-4-|


G|------------------------------------------------------------------|
D|------------------------------------------------------------------|
A|-6-6-9---------------------------6-6-9----------------------------|
E|-------7--7-7-7-7-7-7-7-7-7-7-7-7------4--4-4-4-4-4-4-4-4-4-4-4-4-|

G|---------------------------------------|
D|---------------------------------------|
A|-9-9--7--7-7-7-7-7-7-7-7-7-7-7-7-9-9--4|
E|-----9-------------------------------9-|

Order:

Intro X4
Verse X4
[Bridge]


[Chorus]

Intro X2
Verse X4
2nd Chorus
2nd Bridge X5
Intro X2
Final Chorus
Suggest correction
comments
print report bad tab
5 comments total. Showing first comments.
0 reply
sexymachine94 104 wrote on June 3 2013, 03:16 pm

Perfect! Thanks :)

-2 reply
Cal! 501 wrote on August 4 2013, 08:02 pm

Pretty good... but Im pretty sure the verse is this:

G|--------------------------------------------------------------|
D|--------------------------------------------------------------| X4
A|-6-6-6-------------------------7-7-7-7-7-7-7-7-7-7-7-7-7-7-7-7|
E|-------4-4-4-4-4-6-6-6-7-7-7-7--------------------------------|

I might be wrong but I think that sounds a little better. :)

+1 reply
usmur 55 wrote on December 18 2013, 11:25 am

That's really better

guest
You may want to rate the tab now too:
select rating
Wanna post a correction for this tab? Suggest correction