Oops, an error
Loading. Please wait.

Black Chandelier bass

version 4
version 4

Whole song

Interactive

199 views 1 this week
no commentswrite comment
1 2 3 4 5
3 more votes to show rating
add to favorites
×
Save as Personal and add changes to this tab that will be seen only by you. Learn more ›
×
You can save this tab as Personal to edit and correct it or add notes. All changes will be seen only by you. Learn more »
launch autoscroll
font size
0
reset
guitar tuner
edit
Autoscroll
slow
fast
+/-
esc
set tempo
stop
BIFFY CLYRO | OPPOSITES
Black Chandelier - Bass Tab
Eb Drop Db

This song has some funky tuning, but it sounds good, trust me.
Swing down to Eb Standard, then drop Eb to Db.

Gb|------REST------|------REST------|------REST------|------REST------|
Db|----------------|----------------|----------------|----------------|
Ab|----------------|----------------|----------------|----------------|
Db|------REST------|------REST------|------REST------|------REST------|

  | INTRO
Gb|----------------|----------------|----------------|----------------|
Db|----------------|----------------|----------------|----------------|
Ab|8---8---8---8---|8---8---8---8---|8---8---8---8---|8---8---8---8---|
Db|----------------|----------------|----------------|----------------|

Gb|----------------|----------------|----------------|----------------|
Db|----------------|----------------|----------------|----------------|
Ab|8---8---8---8---|8---8---8---8---|8---8---8---8---|8---8---8~~~~~~-|
Db|----------------|----------------|----------------|----------------|

  | VERSE 1 
Gb|----------------|----------------|----------------|----------------|
Db|----------------|----------------|----------------|----------------|
Ab|7---7---7---0~~~|~~~-0---0---0---|2---2---2---3~~~|~~~-3---3 / 8~~~|
Db|----------------|----------------|----------------|----------------|

Gb|----------------|----------------|----------------|----------------|
Db|----------------|----------------|----------------|----------------|
Ab|~~~-8---8---8---|8---8---8---8---|8---8---8---8---|8---8---8---8---|
Db|----------------|----------------|----------------|----------------| x4

  | PRE-CHORUS
Gb|----------------|----------------|----------------|----------------|
Db|----------------|----------------|----------------|----------------|
Ab|12--12--12--12--|12--12--12--11--|11--11--11--11--|11--11--11--11--|
Db|----------------|----------------|----------------|----------------|

Gb|----------------|----------------|----------------|----------------|
Db|----------------|----------------|----------------|----------------|
Ab|10--10--10--10--|9---10--12--9---|9---9---9---9---|9---9---9---9---|
Db|----------------|----------------|----------------|----------------|

Gb|----------------|----------------|----------------|----------------|
Db|----------------|----------------|----------------|----------------|
Ab|0---8---8---8---|8---8---8---8---|8---8---8---8---|8---8---8---0---|
Db|----------------|----------------|----------------|----------------|

  | CHORUS 1
Gb|----------------|----------------|----------------|----------------|
Db|----------------|----------------|----------------|----------------|
Ab|7---7---0---3~~~|~~~-3---3---3---|3---3---3---3---|3---3---3---3---|
Db|----------------|----------------|----------------|----------------|

Gb|----------------|----------------|----------------|----------------|
Db|----------------|----------------|----------------|----------------|
Ab|0---7---7---0~~~|~~~-0---0---0---|0---0---0---0---|0---0---0---0---|
Db|----------------|----------------|----------------|----------------|

Gb|----------------|----------------|----------------|----------------|
Db|----------------|----------------|----------------|----------------|
Ab|10--10--0---8~~~|~~~-8---8---8---|8---8---8---8---|8---8---8---0---|
Db|----------------|----------------|----------------|----------------|

Gb|----------------|----------------|----------------|----------------|
Db|----------------|----------------|----------------|----------------|
Ab|10--10--0---12~~|~~~-12--12--12--|12--12--12--12--|12--12--12--0---|
Db|----------------|----------------|----------------|----------------|

  | PRE-VERSE
Gb|----------------|----------------|----------------|----------------|
Db|----------------|----------------|----------------|----------------|
Ab|10--10--0---8~~~|~~~-8---8---8---|8---8---8---8---|8---8---8---8---|
Db|----------------|----------------|----------------|----------------|

Gb|----------------|----------------|----------------|----------------|
Db|----------------|----------------|----------------|----------------|
Ab|8---8---8---8---|8---8---8---8---|8---8---8---8---|8---8---8~~~~~~-|
Db|----------------|----------------|----------------|----------------|

  | VERSE 2 
Gb|----------------|----------------|----------------|----------------|
Db|----------------|----------------|----------------|----------------|
Ab|7---7---7---0~~~|~~~-0---0---0---|2---2---2---3~~~|~~~-3---3 / 8~~~|
Db|----------------|----------------|----------------|----------------|

Gb|----------------|----------------|----------------|----------------|
Db|----------------|----------------|----------------|----------------|
Ab|~~~-8---8---8---|8---8---8---8---|8---8---8---8---|8---8---8---8---|
Db|----------------|----------------|----------------|----------------| x4

  | CHORUS 2
Gb|----------------|----------------|----------------|----------------|
Db|----------------|----------------|----------------|----------------|
Ab|7---7---0---3~~~|~~~-3---3---3---|3---3---3---3---|3---3---3---3---|
Db|----------------|----------------|----------------|----------------|

Gb|----------------|----------------|----------------|----------------|
Db|----------------|----------------|----------------|----------------|
Ab|0---7---7---0~~~|~~~-0---0---0---|0---0---0---0---|0---0---0---0---|
Db|----------------|----------------|----------------|----------------|

Gb|----------------|----------------|----------------|----------------|
Db|----------------|----------------|----------------|----------------|
Ab|10--10--0---8~~~|~~~-8---8---8---|8---8---8---8---|8---8---8---0---|
Db|----------------|----------------|----------------|----------------|

Gb|----------------|----------------|----------------|----------------|
Db|----------------|----------------|----------------|----------------|
Ab|10--10--0---12~~|~~~-12--12--12--|12--12--12--12--|12--12--12--0---|
Db|----------------|----------------|----------------|----------------|

Gb|----------------|----------------|----------------|----------------|
Db|----------------|----------------|----------------|----------------|
Ab|7---7---0---3~~~|~~~-3---3---3---|3---3---3---3---|3---3---3---3---|
Db|----------------|----------------|----------------|----------------|

Gb|----------------|----------------|----------------|----------------|
Db|----------------|----------------|----------------|----------------|
Ab|0---7---7---0~~~|~~~-0---0---0---|0---0---0---0---|0---0---0---0---|
Db|----------------|----------------|----------------|----------------|

Gb|----------------|----------------|----------------|----------------|
Db|----------------|----------------|----------------|----------------|
Ab|10--10--0---8~~~|~~~-8---8---8---|8---8---8---8---|8---8---8---0---|
Db|----------------|----------------|----------------|----------------|

Gb|----------------|----------------|----------------|----------------|
Db|----------------|----------------|----------------|----------------|
Ab|10--10--0---12~~|~~~-12--12--12--|12--12--12--12--|12--12--12--0~~~|
Db|----------------|----------------|----------------|----------------|

  | BRIDGE 
Gb|----------------|----------------|----------------|----------------|
Db|----------------|----------------|----------------|----------------|
Ab|----------------|----------------|----------------|----------------|
Db|~~~-0---120-0---|0---0---120-0---|0---0---120-0---|0---0-----------|

Gb|----------------|----------------|----------------|----------------|
Db|----------------|----------------|----------------|----------------|
Ab|----------------|----------------|----------------|----------------|
Db|0---0---120-0---|0---0---120-0---|0---0---120-0---|0---0-----------| x4


Gb|------REST------|------REST------|------REST------|------REST------|
Db|----------------|----------------|----------------|----------------|
Ab|----------------|----------------|----------------|----------------|
Db|------REST------|------REST------|------REST------|------REST------|


  | PRE-OUTRO
Gb|----------------|----------------|----------------|----------------|
Db|----------------|----------------|----------------|----------------|
Ab|8---8---8---8---|8---8---8---8---|8---8---8---8---|8---8---8-------|
Db|----------------|----------------|----------------|----------------|

  | OUTRO (CHORUS)
Gb|----------------|----------------|----------------|----------------|
Db|----------------|----------------|----------------|----------------|
Ab|------------3~~~|~~~-3---3---3---|3---3---3---3---|3---3---3---3---|
Db|----------------|----------------|----------------|----------------|

Gb|----------------|----------------|----------------|----------------|
Db|----------------|----------------|----------------|----------------|
Ab|0---7---7---0~~~|~~~-0---0---0---|0---0---0---0---|0---0---0---0---|
Db|----------------|----------------|----------------|----------------|

Gb|----------------|----------------|----------------|----------------|
Db|----------------|----------------|----------------|----------------|
Ab|10--10--0---8~~~|~~~-8---8---8---|8---8---8---8---|8---8---8---0---|
Db|----------------|----------------|----------------|----------------|

Gb|----------------|----------------|----------------|----------------|
Db|----------------|----------------|----------------|----------------|
Ab|10--10--0---12~~|~~~-12--12--12--|12--12--12--12--|12--12--12--0---|
Db|----------------|----------------|----------------|----------------|

Gb|----------------|----------------|----------------|----------------|
Db|----------------|----------------|----------------|----------------|
Ab|7---7---0---3~~~|~~~-3---3---3---|3---3---3---3---|3---3---3---3---|
Db|----------------|----------------|----------------|----------------|

Gb|----------------|----------------|----------------|----------------|
Db|----------------|----------------|----------------|----------------|
Ab|0---7---7---0~~~|~~~-0---0---0---|0---0---0---0---|0---0---0---0---|
Db|----------------|----------------|----------------|----------------|

Gb|----------------|----------------|----------------|----------------|
Db|----------------|----------------|----------------|----------------|
Ab|10--10--0---8~~~|~~~-8---8---8---|8---8---8---8---|8---8---8---0---|
Db|----------------|----------------|----------------|----------------|

Gb|----------------|----------------|----------------|----------------|
Db|----------------|----------------|----------------|----------------|
Ab|10--10--0~~~~~~~|~~~~~~~~~~~~~~~~|--- Let Ring ---|----------------|
Db|----------------|----------------|----------------|----------------|
Suggest correction
Creating personal tab
Creating personal tab
You can edit any tab online and save it as your Personal.

You can edit, replace or remove any tab part or add personal notes – all changes will be seen only by you.

Personal tabs can be accessed anytime from any device, even offline.
Learn more »
Give kudos to tab author, rate the tab!
1 2 3 4 5
comments
print report bad tab
guest
You may want to rate the tab now too:
select rating
Wanna post a correction for this tab? Suggest correction