Oops, an error
Loading. Please wait.

Bodies In Flight Bass Tab

version 1
version 1

Whole song

Interactive

1,423 views 1 this week
no commentswrite comment
1 2 3 4 5
accurate
x 3
add to favorites
launch autoscroll
font size
0
reset
guitar tuner
Tab Pro tools
  • play this tab
  • loop segment
  • change instrument
  • show fretboard
  • metronome
Autoscroll
slow
fast
+/-
esc
set tempo
stop
Contributor
Difficulty
novice
Biffy Clyro - Bodies in Flight
The Vertigo of Bliss
D A D G

0:08
-----------------|
-----------------|
-----------------|
-11-11-11-11-0---| x2

0:20
-----------------|
-----------------|
-----------------|
-0--0--0--0------|

0:30
-------------------------------------------------------------------|
-------------------------------------------------------------------|
---------------------------------4-4-4-4-4-4-4-4-2-2-2-2-2-2-2-2-2-|
-7-7-7-7-7-7-7-7-2-2-2-2-2-2-2-2-----------------------------------|

0:49
-----------------|
-----------------|
-----------------|
-0-0-0-0-0-0-0-0-|

0:51
------------------------------------------------------------------|
------------------------------------------------------------------|
-2-2-2-2-2-2-2-2---------------------------------2-2-2-2-0-0-0-0--|
-----------------0-0-0-0-0-0-0-0-5-5-5-5-5-5-5-5------------------|

1:13
-------------------------------------|
-------------------------------------|
-3-3-3-3-3-3-3-3-10-10-10-10-9-9-9-9-|
-------------------------------------|

1:24
----------------------------------|
----------------------------------|
-3-3-3-3-3-3-3-3-0-0-0-0-0-0-0-0--|
----------------------------------|

1:35
-----------------|
-----------------|
-----------------|
-0-0-0-0-0-0-0-0-| x2

Repeat all of above again.

Bridge:
3:30
------------------------------------|
------------------------------------|
-5-5-5-5--5-5-5-5--5-5-5-5--7-5-5-5-|
------------------------------------|

------------------------------------|
------------------------------------|
------------------------------------|
-5-5-5-5--5-5-5-5--5-5-5-5--5-5-5-5-|

----------------------------------|
----------------------------------|
----------------------------------|
-4-4-4-4-4-4-4-4-9-9-9-9-7-7-7-7--|

------------------------------------|
------------------------------------|
-5-5-5-5--5-5-5-5--5-5-5-5--7-5-5-5-|
------------------------------------|

------------------------------------|
----------7-5-4-5-----------7-5-4-5-|
------------------------------------|
-5-5-5-5-----------5-5-5-5----------|

----------------------------------|
----------7-5-4-5-----------------|
----------------------------------|
--4-4-4-4---------9-9-9-9-7-7-7-7-|

4:26
------------------------------------------------------------------|
------------------------------------------------4-4-4-4-2-2-2-2---|
---------------------------------4-4-4-4-4-4-4-4------------------|
-0-0-0-0-0-0-0-0-0-0-0-0-0-0-0-0--------------------------------0-|

Enjoy!
comments
We did not receive enough feedback on this tab! Please rate:
print report bad tab
1 2 3 4 5
I want to post or [tab]
guest
You may want to rate the tab now too:
select rating
Please do not post tabs as comments. Select "correction" instead!