Oops, an error
Loading. Please wait.

Booooom Blast And Ruin Tab

version 1
version 1

Whole song

Interactive

24,104 views 30 this week
1 commentread comment
1 2 3 4 5
accurate
x 6
add to favorites
launch autoscroll
font size
0
reset
how to read this tab
guitar tuner
Autoscroll
slow
fast
+/-
esc
set tempo
stop
Help us to improve Ultimate-Guitar.com Take our survey!
×
Author
Difficulty
Tuning
novice
C# G# C# F# A# D#
Booooom, Blast & Ruin.tef

Tabbed by David Newton

Most chord changes occur on the last beat of each bar. Hence why some bars look short.

Intro
  
Eb|--12--14--17--19--12--14|--12--14--17--19--12--14|--12--14--17--19|--12--14--------|
Bb|15--15--15--15--15--15--|15--15--15--15--15--15--|15--15--15--15--|15--15----------|
Gb|------------------------|------------------------|----------------|----------------|
Db|------------------------|------------------------|----------------|--------------9-|
Ab|------------------------|------------------------|----------------|--------------9-|
Db|------------------------|------------------------|----------------|--------------9-|

Pre Verse  
Eb|----------------|----------------|----------------|----------------|
Bb|----------------|----------------|----------------|----------------|
Gb|----------------|----------------|----------------|----------------|
Db|--9-9-9-9-9-9-9-|9-9-9-9-9-9-9-9-|--9-9-9-9-9-9-9-|9-9-9-9-9-9-9-9-|
Ab|--9-129-12129-9-|129-12129-129-9-|--9-129-12129-9-|129-12129-129-9-|
Db|--9-9-9-9-9-9-9-|9-9-9-9-9-9-9-9-|--9-9-9-9-9-9-9-|9-9-9-9-9-9-9-9-|

 
Verse  

Eb|----------------|----------------|----------------|----------------|
Bb|----------------|----------------|----------------|----------------|
Gb|----------------|----------------|----------------|--------------7-|
Db|--9-9-9-9-9-9-9-|9-9-9-9-9-9-9-9-|--9-9-9-9-9-9-9-|9-9-9-9-9-9-9-7-|
Ab|--9-129-12129-9-|129-12129-129-9-|--9-129-12129-9-|129-12129-129-0-|
Db|--9-9-9-9-9-9-9-|9-9-9-9-9-9-9-0-|--0-0-0-0-0-0-0-|0-0-0-0-0-0-0---|
 
                                                                       
Eb|----------------|----------------|----------------|----------------|
Bb|----------------|----------------|----------------|----------------|
Gb|--7-9-7-9-9-7-7-|9-7-9-9-7-9-7---|----------------|----------------|
Db|--7-7-7-7-7-7-7-|7-7-7-7-7-7-7-9-|--9-9-9-9-9-9-9-|9-9-9-9-9-9-9-9-|
Ab|--0-0-0-0-0-0-0-|0-0-0-0-0-0-0-9-|--9-129-12129-9-|129-12129-129-9-|
Db|----------------|--------------9-|--9-9-9-9-9-9-9-|9-9-9-9-9-9-9-9-|
 
                                                                       
Eb|----------------|----------------|----------------|----------------|
Bb|----------------|----------------|----------------|----------------|
Gb|----------------|----------------|----------------|--------------7-|
Db|--9-9-9-9-9-9-9-|9-9-9-9-9-9-9-9-|--9-9-9-9-9-9-9-|9-9-9-9-9-9-9-7-|
Ab|--9-129-12129-9-|129-12129-129-9-|--9-129-12129-9-|129-12129-129-0-|
Db|--9-9-9-9-9-9-9-|9-9-9-9-9-9-9-0-|--0-0-0-0-0-0-0-|0-0-0-0-0-0-0---|
 
                                                                       
Eb|----------------|----------------|----------------|----------------|
Bb|----------------|----------------|----------------|----------------|
Gb|--7-9-7-9-9-7-7-|9-7-9-9-7-9-7---|----------------|----------------|
Db|--7-7-7-7-7-7-7-|7-7-7-7-7-7-7-9-|--9-9-9-9-9-9-9-|9-9-9-9-9-9-9-5-|
Ab|--0-0-0-0-0-0-0-|0-0-0-0-0-0-0-9-|--9-129-12129-9-|129-12129-129-5-|
Db|----------------|--------------9-|--9-9-9-9-9-9-9-|9-9-9-9-9-9-9-5-|


Pre Chorus 
Eb|----------------|----------------|----------------|----------------|
Bb|----------------|----------------|----------------|----------------|
Gb|----------------|----------------|----------------|----------------|
Db|--5-5---5-5-5-7-|--7-7---7-7-7-9-|--9-9-9-9-9-9-9-|9-9-9-9-9-9-9-5-|
Ab|--5-5---5-5-5-7-|--7-7---7-7-7-9-|--9-129-12129-9-|129-12129-129-5-|
Db|--5-5---5-5-5-7-|--7-7---7-7-7-9-|--9-9-9-9-9-9-9-|9-9-9-9-9-9-9-5-|
 
                                                      
Eb|----------------|----------------|----------------|
Bb|----------------|----------------|----------------|
Gb|----------------|----------------|----------------|
Db|--5-5---5-5-5-7-|--7-7---7-7-7---|7-7---7-7---7-0-|
Ab|--5-5---5-5-5-7-|--7-7---7-7-7---|7-7---7-7---7-0-|
Db|--5-5---5-5-5-7-|--7-7---7-7-7---|7-7---7-7---7-0-|


Chorus
Eb|----------------|----------------|----------------|----------------|
Bb|----------------|--------------8-|--8-8-8-8-8-8-8-|8-8-8-8-8-8-8-10|
Gb|----------------|--------------7-|--7-7-7-7-7-7-7-|7-7-7-7-7-7-7-9-|
Db|--0-0-0-0-0-0-0-|0-0-0-0-0-0-0-5-|--5-5-5-5-5-5-5-|5-5-5-5-5-5-5-7-|
Ab|--0-0-0-0-0-0-0-|0-0-0-0-0-0-0-5-|--5-5-5-5-5-5-5-|5-5-5-5-5-5-5-7-|
Db|--0-0-0-0-0-0-0-|0-0-0-0-0-0-0-5-|--5-5-5-5-5-5-5-|5-5-5-5-5-5-5-7-|
 
                                                                       
Eb|----------------|----------------|----------------|----------------|
Bb|--10101010101010|1010101010101012|--12121212121212|12121212121212--|
Gb|--9-9-9-9-9-9-9-|9-9-9-9-9-9-9-11|--11111111111111|1111111111111112|
Db|--7-7-7-7-7-7-7-|7-7-7-7-7-7-7-9-|--9-9-9-9-9-9-9-|9-9-9-9-9-9-9-0-|
Ab|--7-7-7-7-7-7-7-|7-7-7-7-7-7-7-9-|--9-9-9-9-9-9-9-|9-9-9-9-9-9-9-0-|
Db|--7-7-7-7-7-7-7-|7-7-7-7-7-7-7-9-|--9-9-9-9-9-9-9-|9-9-9-9-9-9-9-0-|
 
                                                                       
Eb|----------------|----------------|----------------|----------------|
Bb|----------------|--------------8-|--8-8-8-8-8-8-8-|8-8-8-8-8-8-8-10|
Gb|------11----9---|9-----11--7---7-|--7-7-7-7-7-7-7-|7-7-7-7-7-7-7-9-|
Db|--0-0-0-0-0-0-0-|0-0-0-0-0-0-0-5-|--5-5-5-5-5-5-5-|5-5-5-5-5-5-5-7-|
Ab|--0-0-0-0-0-0-0-|0-0-0-0-0-0-0-5-|--5-5-5-5-5-5-5-|5-5-5-5-5-5-5-7-|
Db|--0-0-0-0-0-0-0-|0-0-0-0-0-0-0-5-|--5-5-5-5-5-5-5-|5-5-5-5-5-5-5-7-|
 
                                     
Eb|----------------|----------------|
Bb|--10101010101010|10101010101010--|
Gb|--9-9-9-9-9-9-9-|9-9-9-9-9-9-9---|
Db|--7-7-7-7-7-7-7-|7-7-7-7-7-7-7-9-|
Ab|--7-7-7-7-7-7-7-|7-7-7-7-7-7-7-9-|
Db|--7-7-7-7-7-7-7-|7-7-7-7-7-7-7-9-|

Repeat Pre Verse, Verse and Chorus

Bass Riff

Gb|------7-------------7---|
Db|4-0-------0-4-0-4-0-----|
Ab|------------------------|
Db|------------------------| Repeat 16x

Guitar part over Bass Riff is same as intro.

FX Pre Chorus
Gb|---|----------------|----------------|----------------|----------------|
Db|---|----------------|----------------|----------------|----------------|
Ab|---|----------------|----------------|----------------|----------------|
Db|-5-|--5-5---5-5-5-7-|--7-7---7-7-7-9-|--9-9---9-9-9-9-|--9-9---9-9-9-5-|
 
                                                   
Gb|----------------|----------------|----------------|
Db|----------------|----------------|----------------|
Ab|----------------|----------------|----------------|
Db|--5-5---5-5-5-7-|--7-7---7-7-7-2-|s/--------------|

The Last Bar is not actually guitar or bass but sounds to be a E Chord Slid up the neck.


Repeat Chorus

Addtional End of Last Chorus
Eb|---|----------------|----------------|----------------|----------------|
Bb|---|----------------|--------------10|--10101010101010|10101010101010--|
Gb|---|----------------|--------------9-|--9-9-9-9-9-9-9-|9-9-9-9-9-9-9---|
Db|-0-|--0-0-0-0-0-0-0-|0-0-0-0-0-0-0-7-|--7-7-7-7-7-7-7-|7-7-7-7-7-7-7---|
Ab|-0-|--0-0-0-0-0-0-0-|0-0-0-0-0-0-0-7-|--7-7-7-7-7-7-7-|7-7-7-7-7-7-7---|
Db|-0-|--0-0-0-0-0-0-0-|0-0-0-0-0-0-0-7-|--7-7-7-7-7-7-7-|7-7-7-7-7-7-7---|


Outro Riff                                                                       
Eb|----------------|----------------|----------------|----------------|
Bb|----------------|----------------|----------------|----------------|
Gb|----------------|----------------|----------------|----------------|
Db|4-0---12--0-4-0-|4-0-12----------|4-0---12--0-4-0-|4-0-12----------|
Ab|4-0---12--0-4-0-|4-0-12----------|4-0---12--0-4-0-|4-0-12----------|
Db|4-0---12--0-4-0-|4-0-12----------|4-0---12--0-4-0-|4-0-12----------|
 
                                                                              
Eb|------------------------|------------------------|------------------------|
Bb|------------------------|------------------------|------------------------|
Gb|------------------------|------------------------|------------------------|
Db|4-0---12--0-4-0-4-0-12--|4-0---12--0-4-0-4-0-12--|4-0---12--0-4-0-4-0-12--|
Ab|4-0---12--0-4-0-4-0-12--|4-0---12--0-4-0-4-0-12--|4-0---12--0-4-0-4-0-12--|
Db|4-0---12--0-4-0-4-0-12--|4-0---12--0-4-0-4-0-12--|4-0---12--0-4-0-4-0-12--|
 
                                                                              
Eb|------------------------|------------------------|------------------------|
Bb|------------------------|------------------------|------------------------|
Gb|------------------------|------------------------|------------------------|
Db|4-0---12--0-4-0-4-0-12--|4-0---12--0-4-0-4-0-12--|4-0---12--0-4-0-4-0-12/-|
Ab|4-0---12--0-4-0-4-0-12--|4-0---12--0-4-0-4-0-12--|4-0---12--0-4-0-4-0-12/-|
Db|4-0---12--0-4-0-4-0-12--|4-0---12--0-4-0-4-0-12--|4-0---12--0-4-0-4-0-12/-|
Suggest correction
What's this?
You can suggest a correction to this tab. Community and Mods will review your correction and vote to approve or reject it.
comments
print report bad tab
1 comment total.
0 reply
iplayindropd 22 wrote on January 19 2013, 05:42 pm

The intro isn't working for me at all. Are you sure there are D notes between every other note?

guest
You may want to rate the tab now too:
select rating
Please do not post tabs as comments. Select "correction" instead!