Oops, an error
Loading. Please wait.

Born On A Horse Bass Tab

version 1
version 1

Whole song

Interactive

8,704 views 1 this week
no commentswrite comment
1 2 3 4 5
x 5
add to favorites
launch autoscroll
font size
0
reset
guitar tuner
Autoscroll
slow
fast
+/-
esc
set tempo
stop
Help us to improve Ultimate-Guitar.com Take our survey!
×
Author
Difficulty
intermediate
I think this song is actually played on synth? (The bass part)
But I figured it out anyhow so here it is!

By the way, I know the guitar is in Drop D, but I found it easier to play it in 
but its up to you :)

G|--------------------------------------------------------------------------|
D|--------------------------------------------------------------------------|
A|--------------------------------------------------------------------------|
E|-4-4-4-4-4-4-4-4-\--------------------------------------------------------|
   . . . . . . . .


G|-----------------------|-----------------------|
D|-----------------------|-----------------------|
A|-----------------6-----|-----------6-----------|
E|-4--6^---4---4-6---7-6-|-4--6^---4---4-6---7-6-|


G|-----------------------|-----------------------|
D|-----------------------|-----------------------|
A|-----------------6-----|-----------------------|
E|-4--6^---4---4-6---7-6-|-4--6^---2-4-----------|

Verse


G|-----------------------|-----------------------|
D|-----------------------|-----------------------|
A|-----------------6-----|-----------------6-----|
E|-4--6^---4---4-6---7-6-|-4--6^---4---4-6---7-6-|

G|-----------------------|-----------------------|
D|-----------------------|-----------------------|
A|-----------------6-----|-----------------6-----|
E|-4--6^---4---4-6---7-6-|-4--6^---4---4-6---7-6-|

G|-----------------------|-----------------------|
D|-----------------6-----|-----------------6-----|
A|-4--6^---4---4-6---7-6-|-4--6^---4---4-6---7-6-|
E|-----------------------|-----------------------|

G|-----------------------|-----------------------|
D|-----------------------|-----------------------|
A|-----------------6-----|-----------------------|
E|-4--6^---4---4-6---7-6-|-4--6^---2-4-----------|

Chorus:

G|-----------------------|-----------------------|
D|-----------------------|-----------------------|
A|-----------------------|-----------------------|
E|-4--6^---4-9--11^---9--|-12--14^--12-7--7-6--6-|

G|-----------------------|-----------------------|
D|-----------------------|-----------------------|
A|-----------------------|-----------------------|
E|-4--6^---4-9--11^---9--|-0---2^----0-7--7-6--6-|

G|-----------------------|-----------------------|
D|-----------------------|-----------------------|
A|-----------------------|-----------------------|
E|-4--6^---4-9--11^---9--|-12--14^--12-7--7-6--6-|

G|-----------------------|-----------------------|
D|-----------------------|-----------------------|
A|-----------------------|-----------------------|
E|-4--6^---4-9--11^---9--|-0---2^----0-7--7-6--6-|

Verse:

G|-----------------------|-----------------------|
D|-----------------------|-----------------------|
A|-----------------6-----|-----------------6-----|
E|-4--6^---4---4-6---7-6-|-4--6^---4---4-6---7-6-|

G|-----------------------|-----------------------|
D|-----------------------|-----------------------|
A|-----------------6-----|-----------------6-----|
E|-4--6^---4---4-6---7-6-|-4--6^---4---4-6---7-6-|

G|-----------------------|-----------------------|
D|-----------------6-----|-----------------6-----|
A|-4--6^---4---4-6---7-6-|-4--6^---4---4-6---7-6-|
E|-----------------------|-----------------------|

G|-----------------------|-----------------------|
D|-----------------------|-----------------------|
A|-----------------6-----|-----------------------|
E|-4--6^---4---4-6---7-6-|-4--6^---2-4-----------|

Chorus:

G|-----------------------|-----------------------|
D|-----------------------|-----------------------|
A|-----------------------|-----------------------|
E|-4--6^---4-9--11^---9--|-12--14^--12-7--7-6--6-|

G|-----------------------|-----------------------|
D|-----------------------|-----------------------|
A|-----------------------|-----------------------|
E|-4--6^---4-9--11^---9--|-0---2^----0-7--7-6--6-|

G|-----------------------|-----------------------|
D|-----------------------|-----------------------|
A|-----------------------|-----------------------|
E|-4--6^---4-9--11^---9--|-12--14^--12-7--7-6--6-|

G|-----------------------|-----------------------|
D|-----------------------|-----------------------|
A|-----------------------|-----------------------|
E|-4--6^---4-9--11^---9--|-0---------------------|

Outro:

G|-----------------------|-----------------------|
D|-----------------------|-----------------------|
A|-----------------------|-----------------------|
E|-7-7-7-7-7-7-7-7-7-7-7-|-4-4-4-4-4-4-4-4-4-4-4-|

G|-----------------------|-----------------------|
D|-----------------------|-----------------------|
A|-----------------------|-----------------------|
E|-9-9-9-9-9-9-9-9-9-9-9-|-0-0-0-2-2-2-2-2-2-2-2-|

G|-----------------------|-----------------------|
D|-----------------------|-----------------------|
A|-----------------------|-----------------------|
E|-4-4-4-4----9-9-9-9----|-0-0-0-0----7-7-6-6----|

G|-----------------------|-----------------------|
D|-----------------------|-----------------------|
A|-----------------------|-----------------------|
E|-4-4-4-4----9-9-9-9----|----2-2-2-2-2-2-2-2----|

G|-----------------------|-----------------------|
D|-----------------------|-----------------------|
A|-----------------6-----|-----------------------|
E|-4--6^---4---4-6---7-6-|-4--6^---2-4-----------|

End.

Pretty simple once you get the hang of it :)
Enjoy.
Suggest correction
comments
print report bad tab
guest
You may want to rate the tab now too:
select rating
Wanna post a correction for this tab? Suggest correction