Oops, an error
Loading. Please wait.

Born On A Horse Tab

version 3
version 3

Whole song

Interactive

6,428 views 3 this week
1 commentread comment
1 2 3 4 5
1 last vote to show rating
add to favorites
launch autoscroll
font size
0
reset
how to read this tab
guitar tuner
Autoscroll
slow
fast
+/-
esc
set tempo
stop
Help us to improve Ultimate-Guitar.com Take our survey!
×
Author
Born On a Horse
Biffy Clyro

Tuning - C#-G#-C#-F#-A#-D#


my take on this song :)


Clean
|--------------------------------------------------------------------------|
|--------------------------------------------------------------------------|
|--------------------------------------------------------------------------|
|--------------------------------------------------------------------------|
|-7-7-7-7-7-7-7-7-7-7-7-7-7-7-7-7/-----------------------------------------|
|--------------------------------------------------------------------------|

lightly strummed - with some notes accented but you can figure that bit out.
|---------------------------------------------------------------------------|
|---------------------------------------------------------------------------|
|---------------------------------7-7-7-7-7-7-7-7-7-7-7-7-------------------|
|-7-7-7-7-7-7-7-7-7-7-7-7-7-7-7-7-7-7-7-7-7-7-7-7-7-7-7-7-------------------|
|---------------------------------------------------------------------------|
|---------------------------------------------------------------------------|

|---------------------------------------------------------------------------|
|---------------------------------------------------------------------------|
|-7-7-7-7-7-7-7-7-7-7-7-7-7-7-7-7-9-9-9-9-9-9-----9-------------------------|
|-5-5-5-5-5-5-5-5-5-5-5-5-5-5-5-5-7-7-7-7-7-7-5-5-7-------------------------|
|-------------------------------------------------------7-7-7---------------|
|---------------------------------------------------------------------------|

|---------------------------------------------------------------------------|
|---------------------------------------------------------------------------|
|----------------141414-----------------121212------121212------------------|
|---141414-----12------12----101010---10------10---9------9-----------------|
|-12------12----------------8------8----------------------------------------|
|---------------------------------------------------------------------------|

|---------------------------------------------------------------------------|
|---------------------------------------------------------------------------|
|----------------141414-------------------121212------121212----------------|
|---141414-----12------12----121212-----10------10---9------9---------------|
|-12------12---------------10------10---------------------------------------|
|---------------------------------------------------------------------------|x2



then kicks in with distortion.

|---------------------------------------------------------------------------|
|---------------------------------------------------------------------------|
|----------------14-14-12-12-------------------------12-12--9-9-------------|
|-10-10-12b13r10-x---x--x--x-14-14-12-12--7-7-9b107--x--x--x-x-12-12-10-10--|
|-10-10-10-------10-10-10-10-10-10-10-10--7-7-7------7--7--7-7-7--7--7--7---|
|-10-10-10-------10-10-10-10-10-10-10-10--7-7-7------7--7--7-7-7--7--7--7---|

|---------------------------------------------------------------------------|
|---------------------------------------------------------------------------|
|-----9b10r7----10-10--9-9-------9-9--1010101010-12-12-9--9--7-7--9-9-------|
|-0-0-0---------x---x--x-x-12-12-x-x--1010101010-x---x-x--x--x-x--x-x-------|
|-0-0-0---------0---0--0-0--0--0-0-0--8-8-8-8-8--10-10-7--7--5-5--7-7-------|
|-0-0-0---------0---0--0-0--0--0-0-0----------------------------------------|x2

|---------------------------------------------------------------------------|
|---------------------------------------------------------------------------|
|---------------------------------------------------------------------------|
|-7-7-7-7-7-0-0-0-0-0-3-3-3-3-3-10-10-10-10-9-9-9-9-------------------------|
|-7-7-7-7-7-0-0-0-0-0-3-3-3-3-3-10-10-10-10-9-9-9-9-------------------------|
|-7-7-7-7-7-0-0-0-0-0-3-3-3-3-3-10-10-10-10-9-9-9-9-------------------------|

|---------------------------------------------------------------------------|
|---------------------------------------------------------------------------|
|---------------------------------------------------------------------------|
|-7-7-7-7-7-0-0-0-0-0-5-5-5-5-5---------------------------------------------|
|-7-7-7-7-7-0-0-0-0-0-5-5-5-5-5---------------------------------------------|
|-7-7-7-7-7-0-0-0-0-0-5-5-5-5-5---------------------------------------------|
--
Clean
|---------------------------------------------------------------------------|
|--------------------------------------------------10-----------------------|
|--7-7-7-7-7-7-7-7-7-7-7-7-7-7-7-7-7-7-7-7-7-7-7----------------------------|
|--7-7-7-7-7-7-7-7-7-7-7-7-7-7-7-7-7-7-7-7-7-5-5-7--------------------------|
|---------------------------------------------------------------------------|
|---------------------------------------------------------------------------|

first tab so go easy.
Suggest correction
Give kudos to tab author, rate the tab!
1 2 3 4 5
comments
print report bad tab
1 comment total.
0 reply
Euan444 30 Nov 13, 2009 12:21 PM

|---------------------------------------------------------------------------|
|---------------------------------------------------------------------------|
|-7-7-7-7-7-7-7-7-7-7-7-7-7-7-7-7-9-9-9-9-9-9-7-7-9-------------------------|
|-5-5-5-5-5-5-5-5-5-5-5-5-5-5-5-5-7-7-7-7-7-7-5-5-7-------------------------|
|-------------------------------------------------------7-7-7---------------|
|---------------------------------------------------------------------------|

should be that! sorry!

guest
You may want to rate the tab now too:
select rating
Wanna post a correction for this tab? Suggest correction