Oops, an error
Loading. Please wait.

Break A Butterfly On A Wheel tab

version 2
version 2

Whole song

478 views 1 this week
no commentswrite comment
1 2 3 4 5
2 more votes to show rating
add to favorites
×
Save as Personal and add changes to this tab that will be seen only by you. Learn more ›
×
You can save this tab as Personal to edit and correct it or add notes. All changes will be seen only by you. Learn more »
launch autoscroll
font size
0
reset
how to read this tab
guitar tuner
edit
Autoscroll
slow
fast
+/-
esc
set tempo
stop
-------------------------------------------------------------------------------
                 Break A Butterfly On A Wheel - Biffy Clyro
--------------------------------------------------------------------------------
Tabbed by: faceingkind

Tuning: Drop D
Video: https://www.youtube.com/watch?v=y9kptBrJDl4

Intro:
e|---------------------------------------------------------------------------|
B|-----------1-1---0------------0-0------------------1-1---3-----------1-1---|
G|-----------0-0---0------------0-0---0--------------0-0---0-----------0-0--0|
D|---------------------------------------------------------------------------|
A|-0-2h-3h-3-----3----0-2h-3h-3-----3------0-2h-3h-3-----3-----0-2h-3h-----3-|
D|---------------------------------------------------------------------------|

e|---------------------------------------------------------------------------|
B|-----------1-1---3/-5-----5-5---3--------1-1---3/-5----5-5---3-------------|
G|-----------0-0---0--------0-0---0--------0-0---0-------0-0---0-------------|
D|---------------------------------------------------------------------------|
A|---------------------------------------------------------------------------|
D|-0-2h-3h-3-----3------3-3-----3------3-3----3------3-3-----3---------------|


Verse 1: I have swallowed all the light....
e|---------------------------------------------------------------------------|
B|-----------1-1---0------------0-0------------------1-1---3-----------1-1---|
G|-----------0-0---0------------0-0---0--------------0-0---0-----------0-0--0|
D|---------------------------------------------------------------------------|
A|-0-2h-3h-3-----3----0-2h-3h-3-----3------0-2h-3h-3-----3-----0-2h-3h-----3-|
D|---------------------------------------------------------------------------|

We are young we're going to change the world
e|---------------------------------------------------------------------------|
B|-----------1-1---3/-5-----5-5---3--------1-1---3/-5----5-5---3-------------|
G|-----------0-0---0--------0-0---0--------0-0---0-------0-0---0-------------|
D|---------------------------------------------------------------------------|
A|---------------------------------------------------------------------------|
D|-0-2h-3h-3-----3------3-3-----3------3-3----3------3-3-----3---------------|

We're going to change the world
e|-------------------------------------------0--------------------------------|
B|-----------1-1---0-------------0-0---------1--------------------------------|
G|-----------0-0---0-------------0-0---0-----0-x4-----------------------------|
D|-------------------------------------------2--------------------------------|
A|-0-2h-3h-3-----3-----0-2h-3h-3-----3-------3--------------------------------|
D|----------------------------------------------------------------------------|

Chorus: What did dad say...
e|---------------------------------------------------------------------------|
B|---------------------------------------------------------------------------|
G|-10------9-------7-------9-------------------------------------------------|
D|-10-x8---10-x8---x-x8----x--x8---------------------------------------------| x2
A|-8-------7-------7-------10------------------------------------------------|
D|---------------------------------------------------------------------------|

Verse 2: Peter climbed a solemn hill
e|---------------------------------------------------------------------------|
B|-----------1-1---0------------0-0------------------1-1---3-----------1-1---|
G|-----------0-0---0------------0-0---0--------------0-0---0-----------0-0--0|
D|---------------------------------------------------------------------------|
A|-0-2h-3h-3-----3----0-2h-3h-3-----3------0-2h-3h-3-----3-----0-2h-3h-----3-| 
D|---------------------------------------------------------------------------|
between those play 3rd fret on the A-string like in the video


Keep control we're going to rise again....
e|---------------------------------------------------------------------------|
B|-1-1-1-1-1-1---3/-5----5-5-5-5-5-5---3-------------------------------------|
G|-x-x-x-x-x-x---0-------x-x-x-x-x-x---0-------------------------------------|
D|-3-3-3-3-3-3---0-------5-5-5-5-5-5---0-------------------------------------|
A|-x-x-x-x-x-x---x-------x-x-x-x-x-x---x-------------------------------------|
D|-3-3-3-3-3-3---3-------3-3-3-3-3-3---3-------------------------------------|

It's time to rise again---
e|-------------------------------------------0--------------------------------|
B|-----------1-1---0-------------0-0---------1--------------------------------|
G|-----------0-0---0-------------0-0---0-----0-x4-----------------------------|
D|-------------------------------------------2--------------------------------|
A|-0-2h-3h-3-----3-----0-2h-3h-3-----3-------3--------------------------------|
D|----------------------------------------------------------------------------|
as in the 2nd verse play the 3rd fret on the A-string between each


Chorus: What did dad say...
e|---------------------------------------------------------------------------|
B|---------------------------------------------------------------------------|
G|-10------9-------7-------9-------------------------------------------------|
D|-10-x8---10-x8---x-x8----x--x8---------------------------------------------| x2
A|-8-------7-------7-------10------------------------------------------------|
D|---------------------------------------------------------------------------|

Outro
e|-0-------0------0------0------0------0------0------0-----------------------|
B|-1-------1------1------1------1------1------0------1-----------------------|
G|-2-------2------2------0------2------2------0------2-----------------------|
D|-3-x8----2-x8---3-x8---2-x8---3-x8---2-x8---2-x8---3-x8--------------------|
A|-3-------0------3------3------3------0------2------3-----------------------|
D|--------------------------------------------2------------------------------|

e|---------------------------------------------------------------------------|
B|-----------1-1---0------------0-0------------------1-1---3-----------1-1---|
G|-----------0-0---0------------0-0---0--------------0-0---0-----------0-0--0|
D|---------------------------------------------------------------------------|
A|-0-2h-3h-3-----3----0-2h-3h-3-----3------0-2h-3h-3-----3-----0-2h-3h-----3-|
D|---------------------------------------------------------------------------|
with the C-note between each

That's all!!! Hope you like it and watch my cover of it. Mon the Biff!!!!


************************************

| /   slide up
| \   slide down
| h   hammer-on
| p   pull-off
| ~   vibrato
| +   harmonic
| x   Mute note
| b   Bend
| pb  Pre-bend
| br  Bend release
| pbr Pre-bend release
| brb Bend release bend

************************************

            
            
Suggest correction
Creating personal tab
Creating personal tab
You can edit any tab online and save it as your Personal.

You can edit, replace or remove any tab part or add personal notes – all changes will be seen only by you.

Personal tabs can be accessed anytime from any device, even offline.
Learn more »
Give kudos to tab author, rate the tab!
1 2 3 4 5
comments
print report bad tab
guest
You may want to rate the tab now too:
select rating
Wanna post a correction for this tab? Suggest correction