Oops, an error
Loading. Please wait.

Bubbles Tab

version 1
version 1

Whole song

Interactive

Video

190,117 views 141 this week
16 commentsread comments
1 2 3 4 5
x 34
add to favorites
launch autoscroll
font size
0
reset
how to read this tab
guitar tuner
Autoscroll
slow
fast
+/-
esc
set tempo
stop
Help us to improve Ultimate-Guitar.com Take our survey!
×
Author
Tuning
C# G# C# F# A# D#
Artist: Biffy Clyro
Song: Bubbles 

Tabbed by: steveprudden
Tuning: Drop C# (Drop D then half a step down)

[Intro]
(0:00)
Repeat x4
D#|---------------------------------------------------------------------------|
A#|-----12h14p12--------------------------------------------------------------|
F#|--13---------h13-----------------------------------------------------------|
C#|---------------------------------------------------------------------------|
G#|---------------------------------------------------------------------------|
C#|---------------------------------------------------------------------------|

[Verse]
(0:03)
Repeat x2
D#|--12-----12-9--7-9----4----9-----4----9----11--12--4----9----11--12--12----|
A#|--9------12-10-9-10---5----10----5----10---10--10--5----10---10--10--9-----|
F#|--9-------------------4----9-----4----9----9---9---4----9----9---9---9-----|
C#|---------------------------------------------------------------------------|
G#|---------------------------------------------------------------------------|
C#|---------------------------------------------------------------------------|

 At the end of the verse play this instead of the last part (0:56)
D#|--9---11--12--12-----------------------------------------------------------|
A#|--10--10--10--10-----------------------------------------------------------|
F#|--9---9---9---9---(then strum a few times)---------------------------------|
C#|--------------11-----------------------------------------------------------|
G#|--------------9------------------------------------------------------------|
C#|---------------------------------------------------------------------------|

[Chorus]
(1:03)
Repeat x2
D#|---------------------------------------------------------------------------|
A#|-----12h14p12--------------7h9p7-------------7h9p7------------7h9p7--------|
F#|--13---------h13-(x4)----9------h9-(x4)----8------h8-(x4)----9-----h9-(x4)-|
C#|---------------------------------------------------------------------------|
G#|---------------------------------------------------------------------------|
C#|---------------------------------------------------------------------------|

 At the end of the chorus play this instead of the last part (1:26)
D#|---------------------------------------------------------------------------|
A#|-7-7-9-9-7-9-9-9-7-7-9-9-10-10-9-9-9---------------------------------------|
F#|-9-9-9-9-9-9-9-9-9-9-9-9-9--9--9-9-9---------------------------------------|
C#|---------------------------------------------------------------------------|
G#|---------------------------------------------------------------------------|
C#|---------------------------------------------------------------------------|

[Post-Chorus]
(1:29)
D#|-0--0--0-0--2--2-2--4--4-4--5--5--5-5--0--0--0-0--4--4--4-4--5--5--5-5-----|
A#|-0--0--0-0--2--2-2--4--4-4--5--5--5-5--0--0--0-0--5--5--5-5--5--5--5-5-----|
F#|-1--1--1-1--2--2-2--4--4-4--6--6--6-6--1--1--1-1--6--6--6-6--6--6--6-6-----|
C#|-2--2--2-2--4--4-4--6--6-6--7--7--7-7--2--2--2-2--6--6--6-6--7--7--7-7-----|
G#|-2--2--2-2--4--4-4--6--6-6--7--7--7-7--2--2--2-2--4--4--4-4--7--7--7-7-----|
C#|---------------------------------------------------------------------------|

D#|-7--7--7-7--7--7--7-7--4--4--4-4--5--5--5-5--4--4--4-4--0--0--0-0----------|
A#|-7--7--7-7--7--7--7-7--5--5--5-5--5--5--5-5--5--5--5-5--0--0--0-0----------|
F#|-8--8--8-8--8--8--8-8--6--6--6-6--6--6--6-6--6--6--6-6--1--1--1-1----------|
C#|-9--9--9-9--9--9--9-9--6--6--6-6--7--7--7-7--6--6--6-6--2--2--2-2----------|
G#|-9--9--9-9--9--9--9-9--4--4--4-4--7--7--7-7--4--4--4-4--2--2--2-2----------|
C#|---------------------------------------------------------------------------|

D#|-2--2--2-2--2--2-2--4--4-4--5--5--5-5--5--5--5-5--0------------------------|
A#|-2--2--2-2--2--2-2--4--4-4--5--5--5-5--5--5--5-5--0------------------------|
F#|-2--2--2-2--2--2-2--4--4-4--6--6--6-6--6--6--6-6--1------------------------|
C#|-4--4--4-4--4--4-4--6--6-6--7--7--7-7--7--7--7-7--2------------------------|
G#|-4--4--4-4--4--4-4--6--6-6--7--7--7-7--7--7--7-7--2------------------------|
C#|---------------------------------------------------------------------------|

[Outro]
(3:21)
D#|-0--0--0--0--0-0-----------------------------------------------------------|
A#|-0--0--0--0--0-0-----------------------------------------------------------|
F#|-1--1--1--1--1-1--9-9-9-9-9-9-9-9-9-9-9-9-9-9-9-9--------------------------|
C#|-2--2--2--2--2-2--9-9-9-9-9-9-9-9-9-9-9-9-9-9-9-9--------------------------|
G#|-2--2--2--2--2-2--7-7-7-7-7-7-7-7-7-7-7-7-7-7-7-7--------------------------|
C#|---------------------------------------------------------------------------|

(3:28)
D#|---------------------------------------------------------------------------|
A#|----------4-5----------4---5----------------4-5---------4---5--------------|
F#|--4---6---------4---6--------(x2)---4---6---------4---6-------(x2)---------|
C#|---------------------------------------------------------------------------|
G#|----4---4-----4---4------4------------0---0-----0---0-----0----------------|
C#|---------------------------------------------------------------------------|

D#|---------------------------------------------------------------------------|
A#|----------4-5----------4---5----------------4-5---------4---5--------------|
F#|--4---6---------4---6--------(x2)---4---6---------4---6--------------------|
C#|---------------------------------------------------------------------------|
G#|----4---4-----4---4------4------------0---0-----0---0-----0----------------|
C#|---------------------------------------------------------------------------|

D#|---------------------------------------------------------------------------|
A#|--7-------------7----------------------------------------------------------|
F#|------9---8---------9---8--------------------------------------------------|
C#|------------9---------------9----------------------------------------------|
G#|----7---7-----7---7---7---7------------------------------------------------|
C#|---------------------------------------------------------------------------|

 The first time you play that last phrase a second guitar plays this at the
 same time (3:47):
D#|-0-0-0-0-0-0-0-0-0-0-0-0-0-0-0-0-------------------------------------------|
A#|-0-0-0-0-0-0-0-0-0-0-0-0-0-0-0-0-------------------------------------------|
F#|-1-1-1-1-1-1-1-1-1-1-1-1-1-1-1-1-------------------------------------------|
C#|-2-2-2-2-2-2-2-2-2-2-2-2-2-2-2-2-------------------------------------------|
G#|-2-2-2-2-2-2-2-2-2-2-2-2-2-2-2-2-------------------------------------------|
C#|---------------------------------------------------------------------------|

[Repeat until end]
(4:12)
D#|---------------------------------------------------------------------------|
A#|------4-5-----4--5----------7-5-4----7-5-4---------------------------------|
F#|--4-6-----4-6------(x7)-----------4--------4-------------------------------|
C#|---------------------------------------------------------------------------|
G#|---------------------------------------------------------------------------|
C#|---------------------------------------------------------------------------|

[End on these chords]
(4:57)
D#|---------------------------------------------------------------------------|
A#|---------------------------------------------------------------------------|
F#|-11-------11---------------------------------------------------------------|
C#|-11-11----11-11\-----------------------------------------------------------|
G#|-9--11----9--11\-----------------------------------------------------------|
C#|----11-------11\-----------------------------------------------------------|

 
************************************

| h  Hammer-on
| p  Pull-off
| \  Slide down 

************************************
Suggest correction
comments
print report bad tab
16 comments total. Showing first comments.
0 reply
jamest54 10 Nov 11, 2009 07:21 PM

the ending should be this i think...

----------------------------------
-----3-4-----3-4------------------
-3-5-----3-5-----(x7)-------------
----------------------------------
----------------------------------
----------------------------------

hope this helps :)

+1 reply
Lonely-Enigma 113 Nov 12, 2009 04:49 PM

I've looked for this tab on here everyday since I got the limited edition boxset and so I'm very happy it's up :D, thank you!

+1 reply
steveprudden 220 Nov 12, 2009 06:31 PM

I've edited the ending to match jamest54's suggestion. I thought the original sounded a bit off.

Thanks for the ratings guys, it means a lot!

guest
You may want to rate the tab now too:
select rating
Wanna post a correction for this tab? Suggest correction