Oops, an error
Loading. Please wait.

Bubbles Tab

version 2
version 2

Whole song

Interactive

Video

30,173 views 15 this week
1 commentread comment
1 2 3 4 5
x 4
add to favorites
launch autoscroll
font size
0
reset
how to read this tab
guitar tuner
Autoscroll
slow
fast
+/-
esc
set tempo
stop
Help us to improve Ultimate-Guitar.com Take our survey!
×
Author
Difficulty
Tuning
intermediate
C# G# C# F# A# D#
Tabbed by Dayle Hobson
Email: dayleh AT blueyonder.co.uk

ARTIST : Biffy Clyro
TITLE : Bubbles

The song (like the rest of the album) is played in drop C#. I tabbed the song by 
watching a few live videos and working it out myself.

\\INTRO RIFF\\

D#|---------------|
A#|----12h14p12p0-|
F#|-13------------|   (X 4) 
C#|---------------|    
G#|---------------|
C#|---------------|

\\VERSE\\

D#|-12----12--9---7--9----4---9----4---9----11-12--4---9---11--12--12-|
A#|-9-----9---10--9--10---5---10---5---10---10-10--5---10--10--10--9--|
F#|-9----------------------------------9----9--9---4---9---9---9---9--|
C#|-------------------------------------------------------------------|
G#|-------------------------------------------------------------------|
C#|-------------------------------------------------------------------|


D#|-12--9---7--9----4---9----4---9----11-12--4---9---11--12--12-------|
A#|-9---10--9--10---5---10---5---10---10-10--5---10--10--10--10-------|
F#|------------------------------9----9--9---4---9---9---9---11-------|
C#|----------------------------------------------------------9--------|
G#|----------------------------------------------------------9--------|
C#|-------------------------------------------------------------------|


(**Last chord strummed fast continuously as it progresses to the next part**)

\\CHORUS\\

D#|---------------------------------------------------------------|
A#|----12h14p12p0-----12h14p12p0-----12h14p12p0-----12h14p12p0----|
F#|-13-------------13-------------13-------------13---------------|
C#|---------------------------------------------------------------|
G#|---------------------------------------------------------------|
C#|---------------------------------------------------------------|

D#|---------------------------------------------------------------|
A#|----7h9p7p0--------7h9p7p0--------7h9p7p0--------7h9p7p0-------|
F#|-9--------------9--------------9--------------9----------------|
C#|---------------------------------------------------------------|
G#|---------------------------------------------------------------|
C#|---------------------------------------------------------------|

D#|---------------------------------------------------------------|
A#|----7h9p7p0--------7h9p7p0--------7h9p7p0--------7h9p7p0-------|
F#|-8--------------8--------------8--------------8----------------|
C#|---------------------------------------------------------------|
G#|---------------------------------------------------------------|
C#|---------------------------------------------------------------|


D#|---------------------------------------------------------------|
A#|----7h9p7p0--------7h9p7p0--------7h9p7p0--------7h9p7p0-------|
F#|-9--------------9--------------9--------------9----------------|
C#|---------------------------------------------------------------|
G#|---------------------------------------------------------------|
C#|---------------------------------------------------------------|

		  (**REPEAT FIRST THREE BARS**)

D#|---------------------------------------------------------------|
A#|-7--7--7--7--7--9--9--7--7--9--9--10--10--9--9-----------------|
F#|-9--9--9--9--9--9--9--9--9--9--9--9---9---9--9-----------------|
C#|---------------------------------------------------------------|
G#|---------------------------------------------------------------|
C#|---------------------------------------------------------------|

\\CHORUS (strummed part)\\

D#|-0---2---4---5---0----4---5---7----4---5---4---0----2---4---5---0---|
A#|-0---2---4---5---0----5---5---7----5---5---5---0----2---4---5---0---|
F#|-1---3---5---6---1----6---6---8----6---6---6---1----3---5---6---1---|
C#|-2---4---6---7---2----6---7---9----6---7---6---2----4---6---7---2---|
G#|-2---4---6---7---2----4---7---9----4---7---4---2----4---6---7---2---|
c#|--------------------------------------------------------------------|

		   (**REPEAT VERSE & CHORUS**)

D#|---|
A#|-9-|
F#|-9-|
C#|-9-|
G#|-7-|
C#|---|



\\END RIFF\\

D#|--------------------------------|
A#|---------4-5-------------4---5--|
F#|-4---6-----------4---6----------|    X2
C#|--------------------------------|
G#|---4---4-----4-----4---4---4----|
C#|--------------------------------|

D#|--------------------------------|
A#|---------4-5-------------4---5--|
F#|-4---6-----------4---6----------|
C#|--------------------------------|    x2
G#|---0---0-----0-----0---0---0----|
C#|--------------------------------|

D#|--------------------------------|
A#|---------4-5-------------4---5--|
F#|-4---6-----------4---6----------|    X2
C#|--------------------------------|
G#|---4---4-----4-----4---4---4----|
C#|--------------------------------|

D#|--------------------------------|
A#|---------4-5-------------4---5--|
F#|-4---6-----------4---6----------|
C#|--------------------------------|    
G#|---0---0-----0-----0---0---0----|
C#|--------------------------------|

D#|---------------------------------|     D#|---|
A#|-5/7---5---4-----5/7---5---4-----|     A#|-9-|
F#|-------------4-----------------4-|     F#|-9-|
C#|---------------------------------|*OR* C#|-9-| When played live
G#|---------------------------------|     G#|-7-|
C#|---------------------------------|     C#|---|

	    (**REPEAT TWICE**)


D#|--------------------------------|
A#|--------------------------------|
F#|-4/--6/--8-9------4/--6/--8-9---|  x7
C#|--------------------------------|    
G#|--------------------------------|
C#|--------------------------------|

D#|---------------------------------|    
A#|-5/7---5---4-----5/7---5---4-----|    
F#|-------------4-----------------4-|     
C#|---------------------------------|
G#|---------------------------------|     
C#|---------------------------------|     

          (**REPEAT TWICE**)

D#|-----------------------|
A#|-----------------------|
F#|-11---6\------11---6\--|
C#|-11---6\------11---6\--|
G#|-9----4\------9----4\--|
C#|-----------------------|



| /  slide up
| \  slide down
| h  hammer-on
| p  pull-off
| ~  vibrato
| +  harmonic
| x  Mute note
Suggest correction
comments
print report bad tab
1 comment total.
0 reply
trig²a 44 Mar 17, 2010 07:11 AM

Nice one, thanks a lot. Althoug I still have my problems with the empty A#-String (it's not loud enough when i pull off =).

Thinkin about a GP5-Version?

guest
You may want to rate the tab now too:
select rating
Wanna post a correction for this tab? Suggest correction