Oops, an error
Loading. Please wait.

Bubbles Tab

version 3
version 3

Whole song

Interactive

Video

6,527 views 15 this week
1 commentread comment
1 2 3 4 5
please rate
add to favorites
launch autoscroll
font size
0
reset
how to read this tab
guitar tuner
Autoscroll
slow
fast
+/-
esc
set tempo
stop
Help us to improve Ultimate-Guitar.com Take our survey!
×
Author
Difficulty
Tuning
intermediate
D A D G B E
Tabbed by:sam_stroud151
         Email:sam_stroud151@live.co.uk

This is my version that you can play in an easy tuning!(drop D)
Listen to the song for the timing,
Please rate and comment :)

INTRO:
e|------------------------11-------------------------------------------|
B|-----11h13p11---(x4)----11-------------------------------------------|
G|--12---------12------12----------------------------------------------|
D|---------------------------------------------------------------------|
A|---------------------------------------------------------------------|
E|---------------------------------------------------------------------|

VERSE:
e|--11--8--6--8--11--8--11--8--10--11--11--8--10--11--11---------------|(x2)
B|--11--9--8--9--11--9--11--9----------11--9----------11---------------|
G|---------------12--8--12--8----------12--8----------12---------------|
D|---------------------------------------------------------------------|
A|---------------------------------------------------------------------|
E|---------------------------------------------------------------------|

PRE-CHORUS:
e|--11-11-11-11-11-11-11-11--------------------------------------------|
B|--11-11-11-11-11-11-11-11--------------------------------------------|
G|---------------------------------------------------------------------|
D|---------------------------------------------------------------------|
A|---------------------------------------------------------------------|
E|---------------------------------------------------------------------|

CHORUS:
e|---------------------------------------------------------------------|(x2)
B|----11h13p11----(x4)---6h8p6---(x4)---6h8p6---(x4)----6h8p6---(x4)---|
G|-12----------12------8-------8------7-------7-------8-------8--------|
D|---------------------------------------------------------------------|
A|---------------------------------------------------------------------|
E|---------------------------------------------------------------------|

e|---------------------------------------------------------------------|
B|---------------------------------------------------------------------|
G|---------------------------------------------------------------------|
D|-3-3-3-3-3-3-3-3-3-3-3-5-5-5-5-6-6-6-6-6-6-6-6-6-6-6-6-6-6-6-6-6-----|
A|-3-3-3-3-3-3-3-3-3-3-3-3-5-5-5-5-6-6-6-6-6-6-6-6-6-6-6-6-6-6-6-6-----|
E|-3-3-3-3-3-3-3-3-3-3-3-3-5-5-5-5-6-6-6-6-6-6-6-6-6-6-6-6-6-6-6-6-----|

e|---------------------------------------------------------------------|
B|---------------------------------------------------------------------|
G|---------------------------------------------------------------------|
D|-10-10-10-10-10-10-10-10-6-6-6-6-6-6-6-6-8-8-8-8-8-8-8-8-------------|
A|-10-10-10-10-10-10-10-10-6-6-6-6-6-6-6-6-8-8-8-8-8-8-8-8-------------|
E|-10-10-10-10-10-10-10-10-6-6-6-6-6-6-6-6-8-8-8-8-8-8-8-8-------------|


e|---------------------------------------------------------------------|
B|---------------------------------------------------------------------|
G|---------------------------------------------------------------------|
D|-8-8-8-8-8-8-8-8-10-10-10-10-10-10-10-10-6-6-6-6-6-6-6-6-------------|
A|-8-8-8-8-8-8-8-8-10-10-10-10-10-10-10-10-6-6-6-6-6-6-6-6-------------|
E|-8-8-8-8-8-8-8-8-10-10-10-10-10-10-10-10-6-6-6-6-6-6-6-6-------------|

e|---------------------------------------------------------------------|
B|---------------------------------------------------------------------|
G|---------------------------------------------------------------------|
D|-10-10-10-10-10-10-10-10-1-1-1-1-1-1-1-1-----------------------------|
A|-10-10-10-10-10-10-10-10-1-1-1-1-1-1-1-1-----------------------------|
E|-10-10-10-10-10-10-10-10-1-1-1-1-1-1-1-1-----------------------------|

e|---------------------------------------------------------------------|
B|---------------------------------------------------------------------|
G|---------------------------------------------------------------------|
D|-3-3-3-3-3-3-3-3-3-3-3-5-5-5-5-6-6-6-6-6-6-6-6-6-6-6-6-6-6-6-6-6-----|
A|-3-3-3-3-3-3-3-3-3-3-3-3-5-5-5-5-6-6-6-6-6-6-6-6-6-6-6-6-6-6-6-6-----|
E|-3-3-3-3-3-3-3-3-3-3-3-3-5-5-5-5-6-6-6-6-6-6-6-6-6-6-6-6-6-6-6-6-----|

VERSE 2:
e|--11--8--6--8--11--8--11--8--10--11--11--8--10--11--11---------------|
B|--11--9--8--9--11--9--11--9----------11--9----------11---------------|
G|---------------12--8--12--8----------12--8----------12---------------|
D|---------------------------------------------------------------------|
A|---------------------------------------------------------------------|
E|---------------------------------------------------------------------|

PRE-CHORUS:
e|--11-11-11-11-11-11-11-11--------------------------------------------|
B|--11-11-11-11-11-11-11-11--------------------------------------------|
G|---------------------------------------------------------------------|
D|---------------------------------------------------------------------|
A|---------------------------------------------------------------------|
E|---------------------------------------------------------------------|

CHORUS 2:
e|---------------------------------------------------------------------|(x2)
B|----11h13p11----(x4)---6h8p6---(x4)---6h8p6---(x4)----6h8p6---(x4)---|
G|-12----------12------8-------8------7-------7-------8-------8--------|
D|---------------------------------------------------------------------|
A|---------------------------------------------------------------------|
E|---------------------------------------------------------------------|

e|---------------------------------------------------------------------|
B|---------------------------------------------------------------------|
G|---------------------------------------------------------------------|
D|-3-3-3-3-3-3-3-3-3-3-3-5-5-5-5-6-6-6-6-6-6-6-6-6-6-6-6-6-6-6-6-6-----|
A|-3-3-3-3-3-3-3-3-3-3-3-3-5-5-5-5-6-6-6-6-6-6-6-6-6-6-6-6-6-6-6-6-----|
E|-3-3-3-3-3-3-3-3-3-3-3-3-5-5-5-5-6-6-6-6-6-6-6-6-6-6-6-6-6-6-6-6-----|

e|---------------------------------------------------------------------|
B|---------------------------------------------------------------------|
G|---------------------------------------------------------------------|
D|-10-10-10-10-10-10-10-10-6-6-6-6-6-6-6-6-8-8-8-8-8-8-8-8-------------|
A|-10-10-10-10-10-10-10-10-6-6-6-6-6-6-6-6-8-8-8-8-8-8-8-8-------------|
E|-10-10-10-10-10-10-10-10-6-6-6-6-6-6-6-6-8-8-8-8-8-8-8-8-------------|


e|---------------------------------------------------------------------|
B|---------------------------------------------------------------------|
G|---------------------------------------------------------------------|
D|-8-8-8-8-8-8-8-8-10-10-10-10-10-10-10-10-6-6-6-6-6-6-6-6-------------|
A|-8-8-8-8-8-8-8-8-10-10-10-10-10-10-10-10-6-6-6-6-6-6-6-6-------------|
E|-8-8-8-8-8-8-8-8-10-10-10-10-10-10-10-10-6-6-6-6-6-6-6-6-------------|

e|---------------------------------------------------------------------|
B|---------------------------------------------------------------------|
G|---------------------------------------------------------------------|
D|-10-10-10-10-10-10-10-10-1-1-1-1-1-1-1-1-----------------------------|
A|-10-10-10-10-10-10-10-10-1-1-1-1-1-1-1-1-----------------------------|
E|-10-10-10-10-10-10-10-10-1-1-1-1-1-1-1-1-----------------------------|

e|---------------------------------------------------------------------|
B|---------------------------------------------------------------------|
G|---------------------------------------------------------------------|
D|-3-3-3-3-3-3-3-3-3-3-3-5-5-5-5-6-6-6-6-6-6-6-6-6-6-6-6-6-6-6-6-6-----|
A|-3-3-3-3-3-3-3-3-3-3-3-3-5-5-5-5-6-6-6-6-6-6-6-6-6-6-6-6-6-6-6-6-----|
E|-3-3-3-3-3-3-3-3-3-3-3-3-5-5-5-5-6-6-6-6-6-6-6-6-6-6-6-6-6-6-6-6-----|

BRIDGE:
e|---------------------------------------------------------------------|(X2)
B|---------------------------------------------------------------------|
G|---------------------------------------------------------------------|
D|-1-1-1--1-1-1--1-1-1--1-1-1--1-1--1-1--------------------------------|
A|-1-1-1--1-1-1--1-1-1--1-1-1--1-1--1-1--------------------------------|
E|-1-1-1--1-1-1--1-1-1--1-1-1--1-1--1-1--------------------------------|

e|---------------------------------------------------------------------|(X7)
B|---------------------------------------------------------------------|
G|---------------------------------------------------------------------|
D|---------7--8---------7--8-------------------------------------------|
A|--8--10--------8--10-------------------------------------------------|
E|---------------------------------------------------------------------|

e|---------------------------------------------------------------------|
B|---------------------------------------------------------------------|
G|---10--8--7-----10--8--7---------------------------------------------|
D|-------------8------------8------------------------------------------|
A|---------------------------------------------------------------------|
E|---------------------------------------------------------------------|

e|---------------------------------------------------------------------|(X7)
B|---------------------------------------------------------------------|
G|---------------------------------------------------------------------|
D|---------7--8---------7--8-------------------------------------------|
A|--8--10--------8--10-------------------------------------------------|
E|---------------------------------------------------------------------|

e|---------------------------------------------------------------------|
B|---------------------------------------------------------------------|
G|---10--8--7-----10--8--7---------------------------------------------|
D|-------------8------------8------------------------------------------|
A|---------------------------------------------------------------------|
E|---------------------------------------------------------------------|

e|---------------------------------------------------------------------|(X7)
B|---------------------------------------------------------------------|
G|---------------------------------------------------------------------|
D|---------7--8---------7--8-------------------------------------------|
A|--8--10--------8--10-------------------------------------------------|
E|---------------------------------------------------------------------|

e|---------------------------------------------------------------------|
B|---------------------------------------------------------------------|
G|---10--8--7-----10--8--7---------------------------------------------|
D|-------------8------------8------------------------------------------|
A|---------------------------------------------------------------------|
E|---------------------------------------------------------------------|

e|---------------------------------------------------------------------|(X7)
B|---------------------------------------------------------------------|
G|---------------------------------------------------------------------|
D|---------7--8---------7--8-------------------------------------------|
A|--8--10--------8--10-------------------------------------------------|
E|---------------------------------------------------------------------|

e|---------------------------------------------------------------------|
B|---------------------------------------------------------------------|
G|---10--8--7-----10--8--7---------------------------------------------|
D|-------------8------------8------------------------------------------|
A|---------------------------------------------------------------------|
E|---------------------------------------------------------------------|

THEN END ON....

e|---------------------------------------------------------------------|
B|---------------------------------------------------------------------|
G|--12------12---------------------------------------------------------|
D|--12--12--12--12-----------------------------------------------------|
A|--10--12--10--12-----------------------------------------------------|
E|------12------12-----------------------------------------------------|

************************************

| /   slide up
| \   slide down
| h   hammer-on
| p   pull-off
| ~   vibrato
| +   harmonic
| x   Mute note
| b   Bend
| pb  Pre-bend
| br  Bend release
| pbr Pre-bend release
| brb Bend release bend

************************************
Suggest correction
Give kudos to tab author, rate the tab!
1 2 3 4 5
comments
print report bad tab
1 comment total.
0 reply
sam_stroud151 79 wrote on August 30 2010, 06:51 pm

come on people rate it, i wanna know what you think!!!!!!!!!

guest
You may want to rate the tab now too:
select rating
Please do not post tabs as comments. Select "correction" instead!