Oops, an error
Loading. Please wait.

Christophers River Tab

version 2
version 2

Whole song

Interactive

2,818 views 1 this week
no commentswrite comment
1 2 3 4 5
accurate
x 3
add to favorites
launch autoscroll
font size
0
reset
how to read this tab
guitar tuner
Tab Pro tools
  • play this tab
  • loop segment
  • change instrument
  • show fretboard
  • metronome
Autoscroll
slow
fast
+/-
esc
set tempo
stop
Contributor
biffy clyro - christophers river

this was tabbed after seeing them play it acoustic in dundee.
by kev



e---------
b---------
g---------
d-9-9-9-9-
a-7-7-7-7-
d---------

e------------------------------------------------------------
b-----------------0----------------0-----------0-------------
g----------------------------------------------------------0- four times
d------------------------------------------------------------
a---10-10-10-10-10--10-10-10-10-10---7-7-7-7-7---9-9-9-9-9---
d------------------------------------------------------------


e------------------------------------------------------------
b------------1-0-------------3------------5------------7-----
g------0---------0--------0----0-------5----7-5------7---7--- four times
d----2---2---------2----4---0--------5---5-----7---7--7---7-- 
a--3------------------5-----------7--------------9-----------
d------------------------------------------------------------


e---------------------------------------------------------------
b-----------------0------------------0------------0-------------
g-------------------------------------------------------------0- three times
d---------------------------------------------------------------
a---10-10-10-10-10---10-10-10-10-10----7-7-7-7-7---9-9-9-9-9----
d---------------------------------------------------------------



e--------------------------------------------------------
b------------------0----------------0--------------------
g--------------------------------------------------------
d-------------------------------------9-9-9-9-7-7-7-7----
a---10-10-10-10-10---10-10-10-10-10---7-7-7-7-9-9-9-9----
d--------------------------------------------------------


e------------------------------------------------------------
b------------1-0-------------3------------5------------7-----
g------0---------0--------0----0-------5----7-5------7---7--- however many times with
d----2---2---------2----4---0--------5---5-----7---7--7---7-- the stop bit
a--3------------------5-----------7--------------9-----------
d------------------------------------------------------------


e---3-----0--------------
b---3-----0---------7----
g---0-----9----5----7----
d---0-----9----5----7----
a---5-----7----3----9----
d---5--------------------

e---------------------------------------------
b---8--8--8--8--8-12-12-12-12-10--------------
g---0--0--0--0--0--0--0--0--0--0-------------- play twice
d---9--9--9--9--9--9--9--9--9--9--------------
a--10-10-10-10-10-10-10-10-10-10--------------
d---------------------------------------------




e---------------------------------------------
b---8--8--8--8--8-12-12-12-12-10--------------
g---0--0--0--0--0--0--0--0--0--0-------------- play twice
d---9--9--9--9--9--9--9--9--9--9--------------
a---------------------------------------------
d--10-10-10-10-10-10-10-10-10-10--------------




e-----------------------------------------------------
b--12-12-12-12-12-12-13-13-13-13-12-10-13-13-13-13-13-
g--12-12-12-12-12-12-12-12-12-12-12-12-12-12-12-12-12-
d--10-10-10-10-10-10-10-10-10-10-10-10-10-10-10-10-10-
a-----------------------------------------------------
d-----------------------------------------------------


e---------------------------------------------
b---8-10-12-10--8-10-12-10--8-----------------
g---0--0--0--0--0--0--0--0--0----------------- play twice
d---9--9--9--9--9--9--9--9--9----------------- (not correct number of notes)
a--10-10-10-10-10-10-10-10-10-----------------
d---------------------------------------------




e---------------------------------------------
b---8-10-12-10--8-10-12-10--8-----------------
g---0--0--0--0--0--0--0--0--0----------------- play twice
d---9--9--9--9--9--9--9--9--9-----------------
a---------------------------------------------
d--10-10-10-10-10-10-10-10-10-----------------



e-----------------------------------------------------
b--12-12-12-12-12-12-13-13-13-13-12-10-13-13-13-13-13-
g--12-12-12-12-12-12-12-12-12-12-12-12-12-12-12-12-12-
d--10-10-10-10-10-10-10-10-10-10-10-10-10-10-10-10-10-
a-----------------------------------------------------
d-----------------------------------------------------

end on e minor
comments
We did not receive enough feedback on this tab! Please rate:
print report bad tab
1 2 3 4 5
I want to post or [tab]
guest
You may want to rate the tab now too:
select rating
Please do not post tabs as comments. Select "correction" instead!