Oops, an error
Loading. Please wait.
We have an official Different People tab made by UG professional guitarists. Check out the tab »
×
2,517 views 3 this week
3 commentsread comments
1 2 3 4 5
x 4
add to favorites
×
Save as Personal and add changes to this tab that will be seen only by you. Learn more ›
×
You can save this tab as Personal to edit and correct it or add notes. All changes will be seen only by you. Learn more »
launch autoscroll
font size
0
reset
guitar tuner
backing track
0:00
0:00
edit
Autoscroll
slow
fast
+/-
esc
set tempo
stop
Author
Difficulty
-------------------------------------------------------------------------------
                             Different People - Biffy Clyro
-------------------------------------------------------------------------------
Song: Different People 
Band: Biffy Clyro
Album: Opposites

Tabbed by: Dutchgerman
E-mail: rutgerw@hotmail.de
Tuning: Standard E,A,D,G

Wait until 0:35
  
INTRO:

(0:35)                  (0:40)                  (0:45)                 (0:50)
G|-----------------------|-----------------------|--------------------|-----------|
D|-----------------------|-----------------------|--------------------|-----------|
A|-5---------------------|-----------------------|--------------------|-----------|
E|-----------------------|-5---------------------|-7------------------|-5---------|   x2

G|-----------|------------|----------|---------|--------|--------|--------|----------|
D|-4---------|-5----------|-7--------|-9-------|-4------|-5------|-7------|-9--------|
A|-----------|------------|----------|---------|--------|--------|--------|----------|
E|-----------|------------|----------|---------|--------|--------|--------|----------|

G|---------------|--------------|------------|------------|----------|----------------|
D|---------------|--------------|------------|------------|----------|----------------|
A|-5-------------|-3------------|-2----------|-0----------|----------|----------------|
E|---------------|--------------|------------|------------|-0--2--3--|-0--2--5--------|


 VERSE:

G|-----------------|-----------------|-----------------|-----------------|
D|-----------------|-----------------|-----------------|-----------------|
A|-----------------|-----------------|-----------------|-5555555555555555|
E|-5555555555555555|-7777777777777777|-5555555555555555|-----------------|

G|-----------------|-----------------|-----------------|
D|-----------------|-----------------|-----------------|
A|-----------------|-----------------|-----------------|
E|-5555555555555555|-7777777777777777|-5555555555555555|


CHORUS:

G|------------------------|------------------------|
D|-44444-55555-77777-99999|-44444-55555-77777-99999|
A|------------------------|------------------------|   x2
E|------------------------|------------------------|

G|-----------------|-----------------|-----------------|-----------------|
D|-----------------|-----------------|-----------------|-----------------|
A|-55555555555555--|-33333333333333--|-22222222222222--|-0000000000------|
E|-----------------|-----------------|-----------------|-----------------|

G|-----------------|----------------------------------|
D|-----------------|----------------------------------|
A|-----------------|----------------------------------|
E|-002233333333333-|-002255555555555555555555---------|

VERSE

CHORUS:


G|------------------------|------------------------|
D|-44444-55555-77777-99999|-44444-55555-77777-99999|
A|------------------------|------------------------|   
E|------------------------|------------------------|

G|-----------------|-----------------|-----------------|-----------------|
D|-----------------|-----------------|-----------------|-----------------|
A|-55555555555555--|-33333333333333--|-22222222222222--|-0000000000------|
E|-----------------|-----------------|-----------------|-----------------|

G|-----------------|----------------------------------|
D|-----------------|----------------------------------|
A|-----------------|----------------------------------|    x2
E|-002233333333333-|-002255555555555555555555---------|

ENDING:

G|-----------------|
D|-----------------|
A|-----------------|
E|-5--------5------|

| /  slide up
| \  slide down
| h  hammer-on
| p  pull-off
| ~  vibrato
| +  harmonic
| x  Mute note
===============================================================================

            
            
Suggest correction
Creating personal tab
Creating personal tab
You can edit any tab online and save it as your Personal.

You can edit, replace or remove any tab part or add personal notes – all changes will be seen only by you.

Personal tabs can be accessed anytime from any device, even offline.
Learn more »
comments
print report bad tab
3 comments total.
+2 reply
Nickel89 116 Oct 03, 2013 08:52 AM

Tab's pretty okay. Just the closing notes should be on the fifth fret on the A string. Furthermore, nice! :)

0 reply
Robert2511 321 Aug 21, 2014 12:46 PM

I want to learn this but I'm having difficulty pinpointing when most of the notes are played, could you please add times to them? I would be very grateful

0 reply
Robert2511 321 Aug 23, 2014 10:16 AM

I've worked it out now and it plays good, just need to work on fingering the D string haha

guest
You may want to rate the tab now too:
select rating
Wanna post a correction for this tab? Suggest correction