Oops, an error
Loading. Please wait.

Dont Wont Cant tab

1,363 views 3 this week
1 commentread comment
1 2 3 4 5
x 5
add to favorites
×
Save as Personal and add changes to this tab that will be seen only by you. Learn more ›
×
You can save this tab as Personal to edit and correct it or add notes. All changes will be seen only by you. Learn more »
launch autoscroll
font size
0
reset
how to read this tab
guitar tuner
edit
Autoscroll
slow
fast
+/-
esc
set tempo
stop
Biffy Clyro – Don’t, Won’t, Can’t

Album: Ellipsis
Tuning: Drop C#


[Intro]

D#|-----------------------
A#|--15-15-15----11-11-13-
F#|--15-15-15----10-10-12-
C#|-/17-17-17----12-12-14-
G#|-----------------------
C#|-----------------------


[Verse]

D#|------------------------------------------------------
A#|-10-10-8--10-10-10-8--10-11-11-13-10------10-10-8--10-
F#|-10-10-9--10-10-10-9--10-10-10-12-10------10-10-9--10-
C#|-12-12-10-12-12-12-10-12-12-12-14-12------12-12-10-12-       x2
G#|------------------------------------------------------
C#|-------------------------------------12\0-------------


[Pre-Chorus]

D#|-------------------------
A#|-15-15-15-15-11-11-13-13-
F#|-15-15-15-15-10-10-12-12-
C#|-17-17-17-17-12-12-14-14-    x2
G#|-------------------------
C#|-------------------------

[Pre-Chorus] (Extra):

D#|-------------
A#|-15/18-17-15-
F#|-------------
C#|-------------
G#|-------------
C#|-------------


[Chorus]

D#|-------------------------------------------------
A#|-10-10-10-10-13-13-13-13-11-11-11-11-11-11-8--8--
F#|-10-10-10-10-14-14-12-12-10-10-10-10-12-12-9--9--
C#|-12-12-12-12-15-15-14-14-12-12-12-12-12-12-10-10-
G#|-------------------------------------------------
C#|-------------------------------------------------

[Chorus] (Extra):

D#|--------------------------------------------------------------
A#|--------------------------------------------------------------
F#|--------------------------------------------------------------
C#|-----5-7-5-----------5-7-5-----------5-7-5-----------5-7-8-7v-       x2 
G#|-5-8-------8-7-5-7-8-------8-7-5-7-8-------8-7-5-7-8----------
C#|--------------------------------------------------------------


[Bridge]

D#|-------------------------------------
A#|-10-10-8--10-10-10-8--10-11-11-13-10-
F#|-10-10-9--10-10-10-9--10-10-10-12-10-
C#|-12-12-10-12-12-12-10-12-12-12-14-12-        
G#|-------------------------------------
C#|-------------------------------------

D#|-----------------------------------------------
A#|-----------------------------------------------
F#|-----------------------------------------------
C#|-----------------------------------------------
G#|-12-0----12----0-0-12----0-0----15-15-15-15-15-
C#|-12-0----12----0-0-12----0-0----15-15-15-15-15-


[Verse]

D#|------------------------------------------------------
A#|-10-10-8--10-10-10-8--10-11-11-13-10------10-10-8--10-
F#|-10-10-9--10-10-10-9--10-10-10-12-10------10-10-9--10-
C#|-12-12-10-12-12-12-10-12-12-12-14-12------12-12-10-12-       
G#|------------------------------------------------------
C#|-------------------------------------12\0-------------

[Pre-Chorus] (Extra):

D#|-------------
A#|-15/18-17-15-
F#|-------------
C#|-------------
G#|-------------
C#|-------------


[Chorus]

D#|-------------------------------------------------
A#|-10-10-10-10-13-13-13-13-11-11-11-11-11-11-13-13-
F#|-10-10-10-10-14-14-12-12-10-10-10-10-10-10-12-12-
C#|-12-12-12-12-15-15-14-14-12-12-12-12-12-12-14-14-
G#|-------------------------------------------------
C#|-------------------------------------------------


D#|-------------------------------------------------
A#|-10-10-10-10-13-13-13-13-11-11-11-11-11-11-8--8--
F#|-10-10-10-10-14-14-12-12-10-10-10-10-12-12-9--9--
C#|-12-12-12-12-15-15-14-14-12-12-12-12-12-12-10-10-
G#|-------------------------------------------------
C#|-------------------------------------------------

[Chorus] (Extra):

D#|--------------------------------------------------------------
A#|--------------------------------------------------------------
F#|--------------------------------------------------------------
C#|-----5-7-5-----------5-7-5-----------5-7-5-----------5-7-8-7v-       x4 
G#|-5-8-------8-7-5-7-8-------8-7-5-7-8-------8-7-5-7-8----------
C#|--------------------------------------------------------------


[Interlude]

D#|---------------------------------------------------
A#|---------------------------------------------------
F#|---10---9/12-------9-12-7------10---9\7----5-7/9-7-
C#|-7----8---------10-----------7----8----------------
G#|---------------------------------------------------
C#|---------------------------------------------------

D#|----------------------------------------------------------
A#|----------------------------------------------------------
F#|---10---9/12-------9-12-7----14v------10---9\7----5-7/9-7\
C#|-7----8---------10------------------7----8----------------
G#|----------------------------------------------------------
C#|----------------------------------------------------------


[Pre-Chorus]

D#|----------------------------------------------------------------------------------------------
A#|------11-11-11-11-11-11-11-11-11-11-11-11-11-11-11-11-6-6-6-6-6-6-6-6-8--8--8--8--8--8--8--8--
F#|------------------------------------------------------7-7-7-7-7-7-7-7-9--9--9--9--10-9--9--9--
C#|-0----12-12-12-12-12-12-12-12-12-12-12-12-12-12-12-12-8-8-8-8-8-8-8-8-10-10-10-10-10-10-10-10-
G#|-0----10-10-10-10-10-10-10-10-10-10-10-10-10-10-10-10-8-8-8-8-8-8-8-8-10-10-10-10-10-10-10-10-
C#|-0----------------------------------------------------8-8-8-8-8-8-8-8-10-10-10-10-10-10-10-10-


[Chorus]

D#|----------------------------------------------------------------
A#|-10-10----10----10-10----10-10-1-1----1----8--8-----8-----8--8--
F#|-10-10----10----10-10----10-10-2-2----2----9--9-----9-----9--9--
C#|-0--0-----0-----0--0-----0--0--3-3----3----10-10----10----10-10-
G#|-0--0-----0-----0--0-----0--0--3-3----3----10-10----10----10-10-
C#|-0--0-----0-----0--0-----0--0--3-3----3----10-10----10----10-10-

D#|---------------------------------------------------------
A#|-6-6----6----6-6----6-6-6-6----6----8--8-----8-----8--8--
F#|-7-7----7----7-7----7-7-7-7----7----9--9-----9-----9--9--
C#|-8-8----8----8-8----8-8-8-8----8----10-10----10----10-10-
G#|-8-8----8----8-8----8-8-8-8----8----10-10----10----10-10-
C#|-8-8----8----8-8----8-8-8-8----8----10-10----10----10-10-

D#|----------------------------------------------------------------
A#|-10-10----10----10-10----10-10-1-1----1----8--8-----8-----8--8--
F#|-10-10----10----10-10----10-10-2-2----2----9--9-----9-----9--9--
C#|-0--0-----0-----0--0-----0--0--3-3----3----10-10----10----10-10-
G#|-0--0-----0-----0--0-----0--0--3-3----3----10-10----10----10-10-
C#|-0--0-----0-----0--0-----0--0--3-3----3----10-10----10----10-10-

D#|------------------------------------------------------------
A#|-6-6----6----6-6----6-6-11-11----11----8--8-----8-----8--8--
F#|-7-7----7----7-7----7-7----------------9--9-----9-----9--9--
C#|-8-8----8----8-8----8-8-12-12----12----10-10----10----10-10-
G#|-8-8----8----8-8----8-8-10-10----10----10-10----10----10-10-
C#|-8-8----8----8-8----8-8----------------10-10----10----10-10-

[Chorus] (Extra):

D#|--------------------------------------------------------------
A#|--------------------------------------------------------------
F#|--------------------------------------------------------------
C#|-----5-7-5-----------5-7-5-----------5-7-5-----------5-7-8-7v-       x4 
G#|-5-8-------8-7-5-7-8-------8-7-5-7-8-------8-7-5-7-8----------
C#|--------------------------------------------------------------


[Breakdown]

D#|-----------------------------------------------------------------------
A#|-----------------------------------------------------------------------
F#|-----------------------------------------------------------------------
C#|-----------------------------------------------------------------------
G#|---8---7/10\---------------------8---7\5\---------------------8---7/10\
C#|-7---8---------0-0-0-0-0-0-0-0-7---8--------0-0-0-0-0-0-0-0-7---8------
 
D#|----------------------------------------------------
A#|----------------------------------------------------
F#|---14\--15\--17\--19\---------------7\--7\--7\--7\--
C#|----------------------------------------------------
G#|---12\--13\--15\--17\--8---7\5\-----5\--5\--5\--5\--
C#|-0-0--0-0--0-0--0-0--7---8--------0-0-0-0-0-0-0-0-0-



************************************

| /  Slide up
| \  Slide down

************************************
Suggest correction
Creating personal tab
Creating personal tab
You can edit any tab online and save it as your Personal.

You can edit, replace or remove any tab part or add personal notes – all changes will be seen only by you.

Personal tabs can be accessed anytime from any device, even offline.
Learn more »
comments
print report bad tab
1 comment total.
0 reply
stevensmith20 10 Aug 27, 2016 06:01 PM

Been trying to work it out since it came out! perfect tab, cheers!

guest
You may want to rate the tab now too:
select rating
Wanna post a correction for this tab? Suggest correction