Oops, an error
Loading. Please wait.

Flammable tab

version 1
version 1

Whole song

  • This is a more detailed version of Simon Neil's pl... Show more
5,026 views 54 this week
2 commentsread comments
1 2 3 4 5
1 last vote to show rating
add to favorites
×
Save as Personal and add changes to this tab that will be seen only by you. Learn more ›
×
You can save this tab as Personal to edit and correct it or add notes. All changes will be seen only by you. Learn more »
launch autoscroll
font size
0
reset
how to read this tab
guitar tuner
edit
Autoscroll
slow
fast
+/-
esc
set tempo
stop
Flammable, from Biffy Clyro's seventh studio album Ellipsis

You'll need some sort of envelope filter (or wah) pedal to get the right sound.

This definitely/probably isn't 100% correct, but it sounds pretty close.

I stole the chorus chords from this tab:
tabs.ultimate-guitar.com/b/biffy_clyro/flammable_crd_1859031id_11072016date.htm


[Intro]

d|---------------------------------------|
A|---------------------------------------|
F|---------------------------------------|
C|-------6---6-----------6---6-----6--9--|
G|---------------------------------------|
C|--4------4---4----4------4---4---------|


[Verse]

d|--------------------------------------|
A|--------------------------------------|
F|--------------------------------------|
C|--------------------------------6--9--|
G|--------------------------------------|
C|--4----2-2-4-4----4----2-2-4-4--------|

d|--------------------------------------|
A|--------------------------------------|
F|--------------------------------------|
C|--------------------------------6--9--|
G|--7------5-7-7----7------5-7-7--------|
C|-------7---------------7--------------|

Play twice then

d|-----------------------------------|
A|-----------------------------------|
F|-----------------------------------|
C|-----------------------------------|
G|-----------------------------------|
C|--4----4----4----4----4----4----4--|


[Chorus]

d|--------------------|
A|--------------------|
F|--7---------9-------|
C|--7----7----9----4--|
G|--5----7----7----4--|
C|-------7---------4--|

d|--------------------|
A|--------------------|
F|--7---------9----6--|
C|--7----7----9----6--|
G|--5----7----7----4--|
C|-------7------------|

Intro and verse again, during which there's an overdubbed palm muted guitar picking these notes.
During the verse, move to the 16th fret at 'flammable'.

 [Intro]|[Verse]
d|------|-------------|
A|------|-------------|
F|--11--|--11----16---|
C|------|-------------|
G|------|-------------|
C|------|-------------|

d|--------------------------------------|
A|--------------------------------------|
F|--------------------------------------|
C|--------------------------------6--9--|
G|--------------------------------------|
C|--4----2-2-4-4----4----2-2-4-4--------|

d|--------------------------------------|
A|--------------------------------------|
F|--------------------------------------|
C|--------------------------------6--9--|
G|--7------5-7-7----7------5-7-7--------|
C|-------7---------------7--------------|

End with

d|-------------------------------------|
A|-------------------------------------|
F|-------------------------------------|
C|-------------------------------------|
G|-------------------------------------|
C|--4----4----4----4----4---44444-16\--|


[Chorus] again

d|--------------------|
A|--------------------|
F|--7---------9-------|
C|--7----7----9----4--|
G|--5----7----7----4--|
C|-------7---------4--|

d|--------------------|
A|--------------------|
F|--7---------9----6--|
C|--7----7----9----6--|
G|--5----7----7----4--|
C|-------7------------|


[Solo]

d|-----------------------------------------------------------------------------------------|
A|-----------------------------------------------------------------------------------------|
F|-----------------------------------------------------------------------------------------|
C|------11-9-11--7\-2----11-9-11--7--11/14-------------------------------------------------|
G|--5-----------------------------------------7----11-9-11--7\------9-11-12--11--12-11-9\--|
C|-------------------------------------------------------------4---------------------------|

Play twice, end second time with 4th fret notes flowing into chorus lead

  Ending of main solo | Chorus lead
d|--------------------|-------------------------------------------------------------|
A|--------------------|-------------------------------------------------------------|
F|--------------------|-------------------------------------------------------------|
C|--------------------|--6^(7)6--4----6^(7)6--4-------6^(7)6--4-------6^(7)6--------|
G|--4-4--4-4--4-4--4--|--------------------------7---------------7------------7-/9--|
C|--------------------|-------------------------------------------------------------|


[Chorus] again

d|--------------------|
A|--------------------|
F|--7---------9-------|
C|--7----7----9----4--|
G|--5----7----7----4--|
C|-------7---------4--|

d|--------------------|
A|--------------------|
F|--7---------9----6--|
C|--7----7----9----6--|
G|--5----7----7----4--|
C|-------7------------|


[End] with [intro] riff.

d|---------------------------------------|
A|---------------------------------------|
F|---------------------------------------|
C|-------6---6-----------6---6-----6--9--|
G|---------------------------------------|
C|--4------4---4----4------4---4---------|


I hope this was easy enough to understand, I tried to explain
certain things but let me know if it's too complicated.



************************************

| /  Slide up
| \  Slide down
| ^  Bend

************************************

            
            
Suggest correction
Creating personal tab
Creating personal tab
You can edit any tab online and save it as your Personal.

You can edit, replace or remove any tab part or add personal notes – all changes will be seen only by you.

Personal tabs can be accessed anytime from any device, even offline.
Learn more »
Give kudos to tab author, rate the tab!
1 2 3 4 5
comments
print report bad tab
2 comments total.
0 reply
D3AD3N 82 Jan 25, 2017 04:29 PM, edited at 09:31 pm

Thank you !

guest
You may want to rate the tab now too:
select rating
Wanna post a correction for this tab? Suggest correction