Oops, an error
Loading. Please wait.

Folding Stars bass

version 2
version 2

Whole song

Interactive

2,395 views 3 this week
3 commentsread comments
1 2 3 4 5
x 6
add to favorites
×
Save as Personal and add changes to this tab that will be seen only by you. Learn more ›
×
You can save this tab as Personal to edit and correct it or add notes. All changes will be seen only by you. Learn more »
launch autoscroll
font size
0
reset
guitar tuner
edit
Autoscroll
slow
fast
+/-
esc
set tempo
stop
Author
Difficulty
Intro (after guitar riff) x4
G|--------------------|
D|--------------------|
A|-4445-555-----------|
E|---------2-333333---|

Verse x4
G|----------------------|
D|----------------------|
A|-4445-5555------------|
E|----------2-33333-----|

Pre-Chorus x2
G|-----------------------------|
D|-----------------------------|
A|-7777-9999-10101010-12121212-|
E|-----------------------------|
(10’s and 12’s)
 
Chorus Pt.1 x1
G|------------------------------|
D|------------------------------|
A|-5555-------------------------|
E|------55555555-7777-3333-0000-|

Chorus Pt.2 x1
G|-------------|
D|-------------|
A|-55555-------|
E|-------55555-|

Intro x2
G|--------------------|
D|--------------------|
A|-4445-555-----------|
E|---------2-333333---|

Verse x5
G|----------------------|
D|----------------------|
A|-4445-5555------------|
E|----------2-33333-----|

Pre-Chorus x2
G|-----------------------------|
D|-----------------------------|
A|-7777-9999-10101010-12121212-|
E|-----------------------------|
(10’s and 12’s)
 
Chorus Pt.1 x1
G|------------------------------|
D|------------------------------|
A|-5555-------------------------|
E|------55555555-7777-3333-0000-|
Chorus Pt.2 x1
G|-------------|
D|-------------|
A|-55555-------|
E|-------55555-|

Chorus Pt.1 x1
G|------------------------------|
D|------------------------------|
A|-5555-------------------------|
E|------55555555-7777-3333-0000-|

Chorus Pt.2 x1
G|-------------|
D|-------------|
A|-55555-------|
E|-------55555-|

Intro x4
G|--------------------|
D|--------------------|
A|-4445-555-----------|
E|---------2-333333---|


Pre-Chorus x4
G|-----------------------------|
D|-----------------------------|
A|-7777-9999-10101010-12121212-|
E|-----------------------------|
(10’s and 12’s)

Chorus Pt.1 x1
G|------------------------------|
D|------------------------------|
A|-5555-------------------------|
E|------55555555-7777-3333-0000-|

Chorus Pt.2 x1
G|-------------|
D|-------------|
A|-55555-------|
E|-------55555-|

Chorus Pt.1 x1
G|------------------------------|
D|------------------------------|
A|-5555-------------------------|
E|------55555555-7777-3333-0000-|

Chorus Pt.2 x1
G|-------------|
D|-------------|
A|-55555-------|
E|-------55555-|
Intro x4
G|--------------------|
D|--------------------|
A|-4445-555-----------|
E|---------2-333333---|

End x1
G|--------------|
D|--------------|
A|--------------|
E|-12(let ring)-|


            
            
Suggest correction
Creating personal tab
Creating personal tab
You can edit any tab online and save it as your Personal.

You can edit, replace or remove any tab part or add personal notes – all changes will be seen only by you.

Personal tabs can be accessed anytime from any device, even offline.
Learn more »
comments
print report bad tab
3 comments total.
0 reply
mynameisbobby 30 Sep 02, 2007 07:17 PM

k just to let u kno the intro verse and introlude is all wrong!!! i cant believe u would disgrace such a goood song!!! ive been playin this song for over 2 yeras now and this is all wrong u suck!!!! k this how it goes bud .....

--2---2--2--3-5-7--2

0 reply
mynameisbobby 30 Sep 02, 2007 07:17 PM

ur such a silly goose ok

0 reply
shooshi123 133 Jun 14, 2008 01:51 AM

person above...the intro tab sounds good compared to your correction
Great tab :)
5 *s

guest
You may want to rate the tab now too:
select rating
Wanna post a correction for this tab? Suggest correction