Oops, an error
Loading. Please wait.

Friends And Enemies tab

version 1
version 1

Whole song

  • Added second guitar part and better chord voicing.
4,666 views 33 this week
no commentswrite comment
1 2 3 4 5
x 7
add to favorites
×
Save as Personal and add changes to this tab that will be seen only by you. Learn more ›
×
You can save this tab as Personal to edit and correct it or add notes. All changes will be seen only by you. Learn more »
launch autoscroll
font size
0
reset
how to read this tab
guitar tuner
edit
Autoscroll
slow
fast
+/-
esc
set tempo
stop
Tuning: CGCFGC
Tab by faceingkind
Cover of the song: https://www.youtube.com/watch?v=BB1LZ7IhCAg

Verse 1: I see a choir...
C|---------------------------------------------------------------------------|
G|---------------------------------------------------------------------------|
F|-7-7-7-7-7-7-7-7-7-7-7-7-7-7-7-7-7-7-7-7-7-7-7-7-7-7-7-7-7-7-7-7-7-7-7-7---|
C|---------------------------------------------------------------------------|
G|---------------------------------------------------------------------------|
C|---------------------------------------------------------------------------|
  
Singing devil songs
C|-------------------------------------------------------------------------0-|
G|-------------------------------------------------------------------------0-|
F|-6-6-6-6-6-6-6-6-6-6-6-6-6-6-6-6-7-7-7-7-7-7-7-7-7-7-7-7-7-7-7-7-7-7-7-7-0-|
C|-------------------------------------------------------------------------0-|
G|---------------------------------------------------------------------------|
C|---------------------------------------------------------------------------|

They don't ask...
C|---------------------------------------------------------------------------|
G|---------------------------------------------------------------------------|
F|-7-7-7-7-7-7-7-7-7-7-7-7-7-7-7-7-7-7-7-7-7-7-7-7-7-7-7-7-7-7-7-7-7-7-7-7---|
C|---------------------------------------------------------------------------|
G|---------------------------------------------------------------------------|
C|---------------------------------------------------------------------------|
  
They're sweeter than you wanted
C|---------------------------------------------------------------------------|
G|---------------------------------------------------------------------------|
F|-6-6-6-6-6-6-6-6-6-6-6-6-6-6-6-6-7-7-7-7-7-7-7-7-7-7-7-7-7-7-7-7-7-7-7-7---|
C|---------------------------------------------------------------------------|
G|---------------------------------------------------------------------------|
C|---------------------------------------------------------------------------|


Pre-Chorus: They had eyes like...
C|-0-------0--------0----------------0-------0--------0----------------------|
G|-9-------9--------0----------------9-------9--------0---12h----------------|
F|-0-------7--------0---12h----------0-------7--------0----------------------|
C|-9-------0--------0----------------9-------0--------0----------------------|
G|-7-------x--------x----------------7-------x--------x----------------------|
C|---------9--------5------------------------9--------5----------------------|


Chorus: Cause you are...
C|--0--0--0------0--0-----0--0---|-----0--0--0------0--0-----0--0------------|
G|--0--0--0------0--0-----0--0---|-----0--0--0------0--0-----0--0------------|
F|--2--2--2------2--2-----2--2---|-----0--0--0------0--0-----0--0------------|
C|--0--0--0------0--0-----0--0---|-----5--5--5------5--5-----5--5------------|
G|--0--0--0------0--0-----0--0---|-----5--5--5------5--5-----5--5------------|
C|--0--0--0------0--0-----0--0---|-----5--5--5------5--5-----5--5------------|

C|--0--0--0------0--0-----0--0---|-----0--0--0------0----0----0----0---------|
G|--0--0--0------0--0-----0--0---|-----0--0--0------0----0----0----0---------|
F|--9--9--9------9--9-----9--9---|-----11-11-11-----7----6----2----4---------|
C|--11-11-11-----11-11----11-11--|-----9--9--9------0----0----0----0---------|
G|--0--0--0------0--0-----0--0---|-----9--9--9------x----x----x----x---------|
C|-------------------------------|-----9--9--9------9----7----4----5---------|


Verse 2: I took a road
C|-------------------------------------0-------------------------------------|
G|-------------------------------------0-------------------------------------|
F|-7-7-7-7-7-7-7-7-7-7-7-7-7-7-7-7-7-7-0-7-7-7-7-7-7-7-7-7-7-7-7-7-7-7-7-7---|
C|-------------------------------------0-------------------------------------|
G|---------------------------------------------------------------------------|
C|---------------------------------------------------------------------------|
  
and waited fo a call
C|---------------------------------------------------------------------------|
G|---------------------------------------------------------------------------|
F|-6-6-6-6-6-6-6-6-6-6-6-6-6-6-6-6-7-7-7-7-7-7-7-7-7-7-7-7-7-7-7-7-7-7-7-7---|
C|---------------------------------------------------------------------------|
G|---------------------------------------------------------------------------|
C|---------------------------------------------------------------------------|

I nursed her...
C|---------------------------------------------------------------------------|
G|---------------------------------------------------------------------------|
F|-7-7-7-7-7-7-7-7-7-7-7-7-7-7-7-7-7-7-7-7-7-7-7-7-7-7-7-7-7-7-7-7-7-7-7-7---|
C|---------------------------------------------------------------------------|
G|---------------------------------------------------------------------------|
C|---------------------------------------------------------------------------|

I prefer here conscious...
C|---------------------------------------------------------------------------|
G|---------------------------------------------------------------------------|
F|-6-6-6-6-6-6-6-6-6-6-6-6-6-6-6-6-7-7-7-7-7-7-7-7-7-7-7-7-7-7-7-7-7-7-7-7---|
C|---------------------------------------------------------------------------|
G|---------------------------------------------------------------------------|
C|---------------------------------------------------------------------------|


Pre-Chorus: Her eyes were...
C|-0-----0------0------------0-----0----0----12h-12h-12h-12h-12h-12h-12h-12h-|
G|-9-----9------0------------9-----9----0----12h-12h-12h-12h-12h-12h-12h-12h-|
F|-0-----7------0---12h------0-----7----0----12h-12h-12h-12h-12h-12h-12h-12h-|
C|-9-----0------0------------9-----0----0----12h-12h-12h-12h-12h-12h-12h-12h-|
G|-7-----x------x------------7-----x----x------------------------------------|
C|-------9------5------------------9----5------------------------------------|


Chorus: Cause you are...
C|--0--0--0------0--0-----0--0---|-----0--0--0------0--0-----0--0-------------|
G|--0--0--0------0--0-----0--0---|-----0--0--0------0--0-----0--0-------------|
F|--2--2--2------2--2-----2--2---|-----0--0--0------0--0-----0--0-------------|
C|--0--0--0------0--0-----0--0---|-----5--5--5------5--5-----5--5-------------|
G|--0--0--0------0--0-----0--0---|-----5--5--5------5--5-----5--5-------------|
C|--0--0--0------0--0-----0--0---|-----5--5--5------5--5-----5--5-------------|

C|--0--0--0------0--0-----0--0---|-----0--0--0----|---------------------------|
G|--0--0--0------0--0-----0--0---|-----0--0--0----|---------------------------|
F|--9--9--9------9--9-----9--9---|-----11-11-11---|12-12--11-11-11-11-11-11-11|
C|--11-11-11-----11-11----11-11--|-----9--9--9----|---------------------------|
G|--0--0--0------0--0-----0--0---|-----9--9--9----|---------------------------|
C|-------------------------------|-----9--9--9----|---------------------------|


C|--0--0--0------0--0-----0--0---|-----0--0--0------0--0-----0--0-------------|
G|--0--0--0------0--0-----0--0---|-----0--0--0------0--0-----0--0-------------|
F|--2--2--2------2--2-----2--2---|-----0--0--0------0--0-----0--0-------------|
C|--0--0--0------0--0-----0--0---|-----5--5--5------5--5-----5--5-------------|
G|--0--0--0------0--0-----0--0---|-----5--5--5------5--5-----5--5-------------|
C|--0--0--0------0--0-----0--0---|-----5--5--5------5--5-----5--5-------------|

C|--0--0--0------0--0-----0--0---|-----0--0--0------|--0----0----0----0-------|
G|--0--0--0------0--0-----0--0---|-----0--0--0------|--0----0----0----0-------|
F|--9--9--9------9--9-----9--9---|-----11-11-11-----|--7----6----2----4-------|
C|--11-11-11-----11-11----11-11--|-----9--9--9------|--0----0----0----0-------|x3
G|--0--0--0------0--0-----0--0---|-----9--9--9------|--x----x----x----x-------|
C|-------------------------------|-----9--9--9------|--9----7----4----5-------|


Friends as good as you...
C|--0--0--0--0---|--0--0--0--0---|--0--0--0--0---|--0--0--0\--0\--0\--0-------|
G|--0--0--0--0---|--0--0--0--0---|--0--0--0--0---|--0--0--0\--0\--0\--0-------|
F|--0--0--0--0---|--2--2--2--2---|--2--2--2--2---|--0--0--0\--0\--0\--0-------|
C|--2--2--2--2---|--2--2--2--2---|--0--0--0--0---|--5--5--5\--4\--4\--2-------|x4
G|--x--x--x--x---|--0--0--0--0---|--0--0--0--0---|--x--x--x\--x\--x\--x-------|
C|--2--2--2--2---|---------------|--0--0--0--0---|--5--5--5\--4\--4\--2-------|


Chorus: Cause you are...
C|--0--0--0------0--0-----0--0---|-----0--0--0------0--0-----0--0-------------|
G|--0--0--0------0--0-----0--0---|-----0--0--0------0--0-----0--0-------------|
F|--2--2--2------2--2-----2--2---|-----0--0--0------0--0-----0--0-------------|
C|--0--0--0------0--0-----0--0---|-----5--5--5------5--5-----5--5-------------|
G|--0--0--0------0--0-----0--0---|-----5--5--5------5--5-----5--5-------------|
C|--0--0--0------0--0-----0--0---|-----5--5--5------5--5-----5--5-------------|

C|--0--0--0------0--0-----0--0---|-----0--0--0----|---------------------------|
G|--0--0--0------0--0-----0--0---|-----0--0--0----|---------------------------|
F|--9--9--9------9--9-----9--9---|-----11-11-11---|12-12--11-11-11-11-11-11-11|
C|--11-11-11-----11-11----11-11--|-----9--9--9----|---------------------------|
G|--0--0--0------0--0-----0--0---|-----9--9--9----|---------------------------|
C|-------------------------------|-----9--9--9----|---------------------------|

play open
C|--0--0--0------0--0-----0--0---|-----0--0--0------0--0-----0--0-------------|
G|--0--0--0------0--0-----0--0---|-----0--0--0------0--0-----0--0-------------|
F|--2--2--2------2--2-----2--2---|-----0--0--0------0--0-----0--0-------------|
C|--0--0--0------0--0-----0--0---|-----5--5--5------5--5-----5--5-------------|
G|--0--0--0------0--0-----0--0---|-----5--5--5------5--5-----5--5-------------|
C|--0--0--0------0--0-----0--0---|-----5--5--5------5--5-----5--5-------------|

C|--0--0--0------0--0-----0--0---|-----0--0--0------|--0----0----0----0-------|
G|--0--0--0------0--0-----0--0---|-----0--0--0------|--0----0----0----0-------|
F|--9--9--9------9--9-----9--9---|-----11-11-11-----|--7----6----2----4-------|
C|--11-11-11-----11-11----11-11--|-----9--9--9------|--0----0----0----0-------|
G|--0--0--0------0--0-----0--0---|-----9--9--9------|--x----x----x----x-------|
C|-------------------------------|-----9--9--9------|--9----7----4----5-------|

But we're growing.....!!!!


************************************

| x   Dead note
| \   Slide down
| h   Harmonics

************************************
Suggest correction
Creating personal tab
Creating personal tab
You can edit any tab online and save it as your Personal.

You can edit, replace or remove any tab part or add personal notes – all changes will be seen only by you.

Personal tabs can be accessed anytime from any device, even offline.
Learn more »
comments
print report bad tab
guest
You may want to rate the tab now too:
select rating
Wanna post a correction for this tab? Suggest correction