Oops, an error
Loading. Please wait.

God And Satan tab

version 1
version 1

Whole song

Video

89,262 views 39 this week
4 commentsread comments
1 2 3 4 5
x 23
add to favorites
×
Save as Personal and add changes to this tab that will be seen only by you. Learn more ›
×
You can save this tab as Personal to edit and correct it or add notes. All changes will be seen only by you. Learn more »
launch autoscroll
font size
0
reset
how to read this tab
guitar tuner
edit
Autoscroll
slow
fast
+/-
esc
set tempo
stop
Author
CHORDS:

   G   C   Em  D  D/F#  Am
e|-3---0---0---2---3---0-|
B|-0---1---0---3---3---1-|
G|-0---0---0---2---2---2-|       Strumming pattern - D D U U DU
D|-0---2---2---0---0---2-|
A|-2---3---2---x---0---x-|
E|-3---x---0---x---2---x-|


[Intro]

        G          Em                          C
e|----(3)-(3)--(3)------0-0-------(3)-(3)---------0-0------0-0---0-----(3)-(3)|
B|-----0---0----0-------0-0--------0---0----------1-1------1-1---1------0---0-|
G|-----0---0----0-------0-0--0-----0---0----------0-0------0-0---0------0---0-|
D|-----0---0----0--2-2-------0-----0---0------2-2------2-2-------2------0---0-|
A|-----------------2-2-------0----------------3-3------3-3-----3--------------|
E|-3-3-------2-----0-0-----2-3-3-3-------2-3-----------------------3-3--------|

e|-------------------------------------|
B|-------------------------------------|
G|----2---2/4-4--4\2--2/4--2/4 4\2-2p--|
D|----0--------------------------------|
A|----0--------------------------------|
E|-2-----------------------------------|


[Verse]

        G          Em                          C
E|----(3)-(3)--(3)------0-0-------(3)-(3)---------0-0------0-0---0-----(3)-(3)|
B|-----0---0----0-------0-0--------0---0----------1-1------1-1---1------0---0-|
G|-----0---0----0-------0-0--0-----0---0----------0-0------0-0---0------0---0-|
D|-----0---0----0--2-2-------0-----0---0------2-2------2-2-------2------0---0-|
A|-----------------2-2-------0----------------3-3------3-3-----3--------------|
E|-3-3-------2-----0-0-----2-3-3-3-------2-3-----------------------3-3--------|

     D/F# Em
E|-----------------------------------|
B|------------0-0-----0--------0-0---|
G|----2-------0-0-----0--------0-0---|
D|----0--2-2--2-2--2--2---2-2--2-2---|
A|----0--2-2-------2------2-2--------|
E|-2-----0-0-------0------0-0--------|


[Pre-Chorus]

      C    G   D
E |--0-0--3-3--0------0-----2----3---|
B |--1-1--0-0--3--3-----3-----3----3-|
G |--0-0--0-0--2----2-----2-----2---2|
D |--2-2--0-0--0---------------------|
A |--3-3--2-2------------------------|
E |-------3-3------------------------|


[Chorus]
(keep using the d d u u du strumming pattern)

          C                  Em           G
E|-0-0-3-0-0-0-0-0-3-3-0-0-0-0-0-0-0-0-3-3-3-3-3-3-|
B|-1-1-1-1-1-1-1-1-1-1-1-1-0-0-0-0-0-0-0-0-0-0-0-0-|
G|-0-0-0-0-0-0-0-0-0-0-0-0-0-0-0-0-0-0-0-0-0-0-0-0-|
D|-2-2-2-2-2-2-2-2-2-2-2-2-2-2-2-2-2-2-0-0-0-0-0-0-|
A|-3-3-3-3-3-3-3-3-3-3-3-3-2-2-2-2-2-2-2-2-2-2-2-2-|
E|-------------------------0-0-0-0-0-0-3-3-3-3-3-3-|

          C                  Em           D
E|-0-0-3-0-0-0-0-0-3-3-0-0-0-0-0-0-0-0-2-2-2-2-2-|
B|-1-1-1-1-1-1-1-1-1-1-1-1-0-0-0-0-0-0-3-3-3-3-3-|
G|-0-0-0-0-0-0-0-0-0-0-0-0-0-0-0-0-0-0-2-2-2-2-2-|
D|-2-2-2-2-2-2-2-2-2-2-2-2-2-2-2-2-2-2-----------|
A|-3-3-3-3-3-3-3-3-3-3-3-3-2-2-2-2-2-2-----------|
E|-------------------------0-0-0-0-0-0-----------|

E |-2-3h|
B |-3---| (on the final strum)
G |-2---|
D |-0---|
A |-----|
E |-----|

   uhh uhh uhh               uhh uhh uhh
        G          Em
e|----(3)-(3)--(3)------0-0-------(3)-(3)-(3)------0-0--------|
B|-----0---0----0-------0-0--------0---0---0-------0-0--------|
G|-----0---0----0-------0-0--0-----0---0---0-------0-0---0----|
D|-----0---0----0--2-2-------0-----0---0---0---2-2-------0----|
A|-----------------2-2-------0-----------------2-2-------0----|
E|-3-3-------2-----0-0-----2-3-3-3-------2-----0-0-----2-3-3-3|


[Verse]


[Pre-Chorus 2]

      C    G   D
E |--0-0--3-3--0------2-----3----2---|
B |--1-1--0-0--3--3-----3-----3----3-|
G |--0-0--0-0--2----2-----2-----2---2|
D |--2-2--0-0--0---------------------|
A |--3-3--2-2------------------------|
E |-------3-3------------------------|


[Chorus 2]

          C                  Em           G
E|-0-0-3-0-0-0-0-0-3-3-0-0-0-0-0-0-0-0-3-3-3-3-3-3-|
B|-1-1-1-1-1-1-1-1-1-1-1-1-0-0-0-0-0-0-0-0-0-0-0-0-|
G|-0-0-0-0-0-0-0-0-0-0-0-0-0-0-0-0-0-0-0-0-0-0-0-0-|
D|-2-2-2-2-2-2-2-2-2-2-2-2-2-2-2-2-2-2-0-0-0-0-0-0-|
A|-3-3-3-3-3-3-3-3-3-3-3-3-2-2-2-2-2-2-2-2-2-2-2-2-|
E|-------------------------0-0-0-0-0-0-3-3-3-3-3-3-|

          C                  Em           D             
E|-0-0-3-0-0-0-0-0-3-3-0-0-0-0-0-0-0-0-2-2-2-2-2-|
B|-1-1-1-1-1-1-1-1-1-1-1-1-0-0-0-0-0-0-3-3-3-3-3-|
G|-0-0-0-0-0-0-0-0-0-0-0-0-0-0-0-0-0-0-2-2-2-2-2-|
D|-2-2-2-2-2-2-2-2-2-2-2-2-2-2-2-2-2-2-----------|
A|-3-3-3-3-3-3-3-3-3-3-3-3-2-2-2-2-2-2-----------|
E|-------------------------0-0-0-0-0-0-----------|(x2)


[Bridge]

I slap the water and watch...(Strumming pattern D DU DU)

         Em         G         Am        C     D
 E |-----------------3-3---0-0-0-0-0-0-0-0---2-2-2|
 B |---------------------0-1-1-1-1-1-1-1-1-0-3-3-3|
 G |---------------------0-2-2-2-2-2-2-2-2-0-2-2-2| 
 D |-2-2-2-2-2---0-------0-2-2-2-2-2-2-0-0-0-0-0-0|
 A |-2-2-2-2-2---0---2-2---------------3-3--------|
 E |-0-0-0-0-0-2---3-3-3--------------------------|(x4)


[Outro]

 uhh uhh uhh               uhh uhh uhh
        G          Em                         C
e|----(3)-(3)--(3)------0-0-------(3)-(3)-(3)-0|
B|-----0---0----0-------0-0--------0---0---0--1|
G|-----0---0----0-------0-0--0-----0---0---0--0|
D|-----0---0----0--2-2-------0-----0---0---0--2|
A|-----------------2-2-------0----------------3|
E|-----3-----2-----0-0-----2-3-3-3-------2-----|



************************************

| x    Dead note
| (n)  Ghost note
| p    Pull-off
| /    Slide up
| \    Slide down
| h    Hammer-on

************************************
Suggest correction
Creating personal tab
Creating personal tab
You can edit any tab online and save it as your Personal.

You can edit, replace or remove any tab part or add personal notes – all changes will be seen only by you.

Personal tabs can be accessed anytime from any device, even offline.
Learn more »
comments
print report bad tab
4 comments total. Showing first comments.
+3 reply
Nattack_TGD 32 Sep 07, 2010 02:45 AM

Thank God someone actually tabbed this right.
Bit suspect of the D/F# chord, but other than that, sounds pretty good to me.

+1 reply
Monsieur Folie 31 Sep 15, 2010 12:58 PM

Spot on dude! Awesome tab. 5 stars. =D

0 reply
shawen 143 Sep 16, 2010 10:09 AM

tehehehehe tankiesss

guest
You may want to rate the tab now too:
select rating
Wanna post a correction for this tab? Suggest correction