Oops, an error
Loading. Please wait.

God And Satan Tab

version 2
version 2

Whole song

1,884 views 6 this week
1 commentread comment
1 2 3 4 5
excellent!
x 3
add to favorites
launch autoscroll
font size
0
reset
how to read this tab
guitar tuner
Autoscroll
slow
fast
+/-
esc
set tempo
stop
Help us to improve Ultimate-Guitar.com Take our survey!
×
Difficulty
novice
I decided to try to tab this song as there is only 1 half descent version to be found
online and after all, it is a fantasic song. This is what I have come up with after hours
of listening and trying out different chord positionings etc. Hope you all enjoy it and 
any feedback will be greatly appreciated. Many thanks and have fun playing along!! =)

INTRO:
e|-----------------------------------------------------------------------|
B|-----------------------------------------0------5--5---5------5--0---0-|
G|-4----4--0---0------0--0---0------4--0---0------0--0---0------0--0---0-|
D|-0----0--0---0-2--2-2--0---0------0--0-X---X--X------X---X--X----------|
A|-X--x-X----X---2--2------X---X--x-X----2---3--3------3---3--3------X---|
E|-3--3------2---0--0------2---3--3----------------------------------2---|

e|---------------------------------------------|
B|---------------------------------------------|
G|------4--0---0-2/4--4/2-2/4-4-------4--4---0-|
D|------0--0---0----------------0--0-------0---|
A|-X--x-X----X------------------x--x-------x---|
E|-3--3------2------------------0--0-------0---|

VERSE (X2):
e|-----------------------------------------------------------------------|
B|------------------------------------------------1--1---1------1--1---0-|
G|------0--0---0------0--0---0------0--0---0------0--0---0------0--0---0-|
D|------0--0---0-2--2-2--2---0-0----0--0---0-2--2------2---2--2------2---|
A|-X--x-X----X---2--2------X---X--x-X----X---3--3------3---3--3------3---|
E|-3--3------3---0--0------2---3--3------3-------------------------------|

e|-------------------------------------------|
B|-------------------------------------------|
G|------0--0---0------0--0---0------0--0---0-|
D|------0--0---0-2--2-2--2---2-2--2-2--2---0-|
A|-X--x-X----X---2--2------X---2--2------X---|
E|-3--3------3---0--0------2---0--0------2---|

PRE-CHORUS 1:
e|-0--0--3--3--------0------2-------3------3-|
B|-1--1--3--3--3-3------3------3-------3-----|
G|-0--0--0--0--2---2------2------2-------2---|
D|-2--2--0--0--0-----------------------------|
A|-3--3--x--x--------------------------------|
E|-X--X--3--3--------------------------------|

CHORUS 1 (X2, EACH CHORD PLAYED FOR 4 BEATS):
e|-3-3-0-|-3-|
B|-1-1-0-|-3-|
G|-0-0-0-|-0-| <-- 1ST TIME END ON G
D|-2-2-2-|-0-|
A|-3-3-2-|-x-|
E|-X-X-0-|-3-|

e|------2--2---3-|
B|-3----3--3---3-|
G|-2--2------2---| <-- 2ND TIME END BY PICKING THIS RIFF
D|-0--0------0---|
A|---------------|
E|---------------|

POST-CHORUS:
e|---------------------------------------------------------|
B|---------------------------------------------------------|
G|------0--0---0------0--0---0------0--0---0------0--0---0-|
D|-0----0--0---0-2--2-2--2---0-0----0--0---0-2--2-2--2---0-|
A|-X--x-X----X---2--2------X---X--x-X----X---2--2------X---|
E|-3--3------2---0--0------2---3--3------2---0--0------2---|

(REPEAT VERSE X2)

PRE-CHORUS 2:
e|-0--0--3--3--------0------2-------0------3-|
B|-1--1--3--3--3--------3------3-------3---3-|
G|-0--0--0--0--2----------2------2-------2---|
D|-2--2--0--0--0-----------------------------|
A|-3--3--x--x--------------------------------|
E|-X--X--3--3--------------------------------|

(REPEAT CHORUS X2)

BRIDGE (x4):
e|--------------------------------------------------|
B|------0--0---0------0-1--1-1--1-1-1-5--5-5-7--7-7-|
G|------0--0---0------0-2--2-2--2-2-2-0--0-0-0--0-0-|
D|-2--2-2--2-2-0-0--0-0-2--2-2--0-X-0-X--X-x-X--X-x-|
A|-2--2------X---X--X-X-0--0------2---3--3---5--5---|
E|-0--0------2---3--3-------------------------------|

OUTRO:
e|-------------------------------------------3-|
B|-------------------------------------------1-|
G|------0--0---0------0--0---0------0--0---0-2-|
D|-0----0--0---0-2--2-2--2---0-0----0--0-x-0-0-|
A|-X--x-X----X---2--2------X---X--x-X----2---3-|
E|-3--3------2---0--0------2---3--3----------X-|
Suggest correction
What's this?
You can suggest a correction to this tab. Community and Mods will review your correction and vote to approve or reject it.
comments
We did not receive enough feedback on this tab! Please rate:
print report bad tab
1 2 3 4 5
1 comment total.
0 reply
acbuttafuoco 17 wrote on May 7 2014, 02:52 pm

This tab has the right bridge! Nice job.

guest
You may want to rate the tab now too:
select rating
Please do not post tabs as comments. Select "correction" instead!