Oops, an error
Loading. Please wait.

Help Me Be Captain tab

365 views 3 this week
no commentswrite comment
1 2 3 4 5
1 last vote to show rating
add to favorites
×
Save as Personal and add changes to this tab that will be seen only by you. Learn more ›
×
You can save this tab as Personal to edit and correct it or add notes. All changes will be seen only by you. Learn more »
launch autoscroll
font size
0
reset
how to read this tab
guitar tuner
edit
Autoscroll
slow
fast
+/-
esc
set tempo
stop
Tabbed by: Nathan Brown
eMail: bnathan415@gmail.com

Tuning is in Drop C (CGCFAd)  


[Intro]
                               
    *bass line indicated in brackets*                        
d|---------------------------------------------------------------------------|
A|---------------------------------------------------------------------------|
F|--------------------------3-3--------------------------3-3-4~-3-3-4~-3-3---|
C|--------------------------2-2--------------------------2-2----2-2----2-2---|
G|--------------------------1-1--------------------------1-1----1-1----1-1---|
C|-(2-2-2-4-4-4-5-5-5-9-9-9-8-8--2-2-2-4-4-4-5-5-5-9-9-9-8-8)----------------|

d|---------------------------------------------------------------------------|
A|---------------------------------------------------------------------------|
F|---------------------------------------------------------------------------|
C|-12-0-0-12-0-0-12-0-12-15-12-0-0-12-0-0-12-0-0-15-14-13--------------------|
G|-12-0-0-12-0-0-12-0-12-15-12-0-0-12-0-0-12-0-0-15-14-13--------------------|
C|-12-0-0-12-0-0-12-0-12-15-12-0-0-12-0-0-12-0-0-15-14-13--------------------|

d|---------------------------------------------------------------------------|
A|---------------------------------------------------------------------------|
F|---------------------------------------------------------------------------|
C|-12-0-0-12-0-0-12-0-12-15-12-0-0-12-0-0-15-14-13-12-11-10------------------|
G|-12-0-0-12-0-0-12-0-12-15-12-0-0-12-0-0-15-14-13-12-11-10------------------|
C|-12-0-0-12-0-0-12-0-12-15-12-0-0-12-0-0-15-14-13-12-11-10------------------|


[Verse]
                                                                                             \
d|-----------------------------------------------------------------------------------------| |
A|-------3------3----3--------3------3----3--------3------3----3--------3------3-----------| |
F|-------5b-----5b---5b-------5b-----5b---5b-------5b-----5b---5b-------5b-----5b----------| |
C|-0-0-0----0-0----0----0-0-0----5-5----5----0-0-0----0-0----7----5-5-5----0-0----0--------| |
G|-0-0-0----0-0----0----0-0-0----5-5----5----0-0-0----0-0----7----5-5-5----0-0----0--------| |
C|-0-0-0----0-0----0----0-0-0----5-5----5----0-0-0----0-0----7----5-5-5----0-0----0--------| |
                                                                                             | x2
d|-0-0---0-0---0-0---0-0-0-0---0-0---0-0---0-0---0-0---0-0-0-0---0-0---------|               |
A|-3-3---3-3---3-3---3-3-3-3---3-3---3-3---3-3---3-3---3-3-3-3---3-3---------|               |
F|-0-0---0-0---0-0---0-0-0-0---0-0---0-0---0-0---0-0---0-0-0-0---0-0---------|               |
C|-4-4---4-4---4-4---4-4-0-0---0-0---4-4---4-4---4-4---4-4-0-0---0-0---------|               |
G|-2-2---2-2---0-0-------------------2-2---2-2---0-0-------------------------|               |
C|-------------------2-4-5-5---5-5---------------------2-4-5-5---5-5---------|               |
                                                                                             /

[Chorus]

 Lead Guitar 
                                                                              \
d|-14-------14-------14-------14-------12-------12-------12-------12---------| |
A|----15-------15-------15-------15-------14-------14-------14-------14------| |
F|-------14-------14-------14-------14-------14-------14-------14-------14---| |
C|---------------------------------------------------------------------------| |
G|---------------------------------------------------------------------------| |
C|---------------------------------------------------------------------------| |
                                                                               | x2
d|-14-------14-------14-------14-------12-------12-------12-------12---------| |
A|----15-------15-------15-------15-------14-------14-------14-------14------| |
F|-------16-------16-------16-------16-------14-------14-------14-------14---| |
C|---------------------------------------------------------------------------| |
G|---------------------------------------------------------------------------| |
C|---------------------------------------------------------------------------| |
                                                                               /
  Rhythm Guitar
                                                                               \
d|---------------------------------------------------------------------------| |
A|---------------------------------------------------------------------------| |
F|---------------------------------------------------------------------------| |
C|-0-0-0-0-0-0-0-0-0-0-0-0-7-7-7-7-7-7-2-2-2-4-4-4-9-9-9-9-9-9-9-9-9-9-9-9---| |
G|-0-0-0-0-0-0-0-0-0-0-0-0-7-7-7-7-7-7-2-2-2-4-4-4-9-9-9-9-9-9-9-9-9-9-9-9---| |
C|-0-0-0-0-0-0-0-0-0-0-0-0-7-7-7-7-7-7-2-2-2-4-4-4-9-9-9-9-9-9-9-9-9-9-9-9---| |
                                                                               | x2
d|---------------------------------------------------------------------------| |
A|---------------------------------------------------------------------------| |
F|---------------------------------------------------------------------------| |
C|-7-7-7-7-7-7-7-7-7-7-7-7---------------------------------------------------| |
G|-7-7-7-7-7-7-7-7-7-7-7-7---------------------------------------------------| |
C|-7-7-7-7-7-7-7-7-7-7-7-7---------------------------------------------------| |
                                                                               /

Rhythm Guitar and Lead combo

I figured out a way of playing some of the notes in the lead guitar an octave lower with the
rhythm guitar so your sound can be bigger.

                                                                               \
d|---------------------------------------------------------------------------| |
A|-7-7-7-7-7-7-7-7-7-7-7-7-5-5-5-5-5-5-------------7-7-7-7-7-7-7-7-7-7-7-7---| |
F|-7-7-7-7-7-7-7-7-7-7-7-7-6-6-6-6-6-6-------------7-7-7-7-7-7-7-7-7-7-7-7---| |
C|-7-7-7-7-7-7-7-7-7-7-7-7-7-7-7-7-7-7-2-2-2-4-4-4-9-9-9-9-9-9-9-9-9-9-9-9---| |
G|-0-0-0-0-0-0-0-0-0-0-0-0-7-7-7-7-7-7-2-2-2-4-4-4-9-9-9-9-9-9-9-9-9-9-9-9---| |
C|-0-0-0-0-0-0-0-0-0-0-0-0-7-7-7-7-7-7-2-2-2-4-4-4-9-9-9-9-9-9-9-9-9-9-9-9---| |
                                                                               | x2
d|---------------------------------------------------------------------------| |
A|-5-5-5-5-5-5-5-5-5-5-5-5---------------------------------------------------| |
F|-6-6-6-6-6-6-6-6-6-6-6-6---------------------------------------------------| |
C|-7-7-7-7-7-7-7-7-7-7-7-7---------------------------------------------------| |
G|-7-7-7-7-7-7-7-7-7-7-7-7---------------------------------------------------| |
C|-7-7-7-7-7-7-7-7-7-7-7-7---------------------------------------------------| |
                                                                               /

[Post Chorus]

    *bass line indicated in brackets*
d|---------------------------------------------------------------------------|
A|---------------------------------------------------------------------------|
F|---------------------------------------------------------------------------|
C|-9-9-9-9\-------------12-0-0-12-0-0-12-0-0-12-0-0--------------------------|  x2
G|-9-9-9-9\-------------12-0-0-12-0-0-12-0-0-12-0-0--------------------------|
C|-9-9-9-9\-(5-5-10-10)-12-0-0-12-0-0-12-0-0-12-0-0--------------------------|

d|---------------------------------------------------------------------------|
A|---------------------------------------------------------------------------|
F|---------------------------------------------------------------------------|
C|---------------------------------------------------------------------------|  x4
G|---------------------------------------------------------------------------|
C|-18b-0-0-18b-0-0-18b-0-0-19-17-16-18b-0-0-18b-0-0-18b-0-0-19-17-15---------|

d|---------------------------------------------------------------------------|
A|---------------------------------------------------------------------------|
F|---------------------------------------------------------------------------|
C|-9-9-9-9\-5-5/-10-10-12-0-0-12-0-0-12-0-0-12-0-0---------------------------|  x2
G|-9-9-9-9\-5-5/-10-10-12-0-0-12-0-0-12-0-0-12-0-0---------------------------|
C|-9-9-9-9\-5-5/-10-10-12-0-0-12-0-0-12-0-0-12-0-0---------------------------|
                                                                               \
d|---------------------------------------------------------------------------| |
A|---------------------------------------------------------------------------| |
F|---------------------------------------------------------------------------| |
C|-9-9-9-9\-5-5/-10-10/-12-0-0-12\-8-8\-3-3/-5-5-5-5-5-5\-1-1/-8-8/-12-12-0--| |
G|-9-9-9-9\-5-5/-10-10/-12-0-0-12\-8-8\-3-3/-5-5-5-5-5-5\-1-1/-8-8/-12-12-0--| |
C|-9-9-9-9\-5-5/-10-10/-12-0-0-12\-8-8\-3-3/-5-5-5-5-5-5\-1-1/-8-8/-12-12-0--| |
                                                                               | x2
d|---------------------------------------------------------------------------| |
A|---------------------------------------------------------------------------| |
F|---------------------------------------------------------------------------| |
C|-12-12-0-12-12-0-12-12-----------------------------------------------------| |
G|-12-12-0-12-12-0-12-12-----------------------------------------------------| |
C|-12-12-0-12-12-0-12-12-----------------------------------------------------| |
                                                                               /

[Instrumental]

d|---------------------------------------------------------------------------|
A|---------------------------------------------------------------------------|
F|-2-2-4-11b-9-9-9h11--2-2-4-11b-11b-11--------------------------------------|
C|-0-0-0-0-------------0-0-0-0-----------------------------------------------|  x2
G|---------------------------------------------------------------------------|
C|-2-4-5-9-------------2-4-5-9-----------------------------------------------|


[Outro]
                                                                               \
d|-14-14-14-14-14-14-14-14-14-14-14-14-14-14-14-14-14-14-14-14-14-14-14-14---| | 
A|-15-15-15-15-15-15-15-15-15-15-15-15-15-15-15-15-15-15-15-15-15-15-15-15---| |
F|-14-14-14-14-14-14-14-14-14-14-14-14-14-14-14-14-14-14-14-14-14-14-14-14---| |
C|-0--0--0--0--0--0--0--0--0--0--0--0--14-14-14-14-14-14-14-14-14-14-14-14---| |
G|-0--0--0--0--0--0--0--0--0--0--0--0--0--0--0--0--0--0--0--0--0--0--0--0----| |
C|-0--0--0--0--0--0--0--0--0--0--0--0----------------------------------------| | 
                                                                               | x2
d|-14-14-14-14-14-14-14-14-14-14-14-14-14-14-14-14-14-14-14-14-14-14-14-14---| |
A|-15-15-15-15-15-15-15-15-15-15-15-15-15-15-15-15-15-15-15-15-15-15-15-15---| |
F|-14-14-14-14-14-14-14-14-14-14-14-14-14-14-14-14-14-14-14-14-14-14-14-14---| |
C|-------------------------------------14-14-14-14-14-14-14-14-14-14-14-14---| |
G|-14-14-14-14-14-14-14-14-14-14-14-14-0--0--0--0--0--0--0--0--0--0--0--0----| |
C|---------------------------------------------------------------------------| |
                                                                               /
d|---------------------------------------------------------------------------|
A|---------------------------------------------------------------------------|
F|---------------------------------------------------------------------------|
C|-12-0-0-12-0-0-12-0-12-15-12-0-0-12-0-0-12-0-12-15-------------------------|
G|-12-0-0-12-0-0-12-0-12-15-12-0-0-12-0-0-12-0-12-15-------------------------|
C|-12-0-0-12-0-0-12-0-12-15-12-0-0-12-0-0-12-0-12-15-------------------------|

d|---------------------------------------------------------------------------|
A|---------------------------------------------------------------------------|
F|---------------------------------------------------------------------------|
C|-12-0-0-12-0-0-12-0-12-15-12-0-0-12-0-0-12-0-12--3~------------------------|
G|-12-0-0-12-0-0-12-0-12-15-12-0-0-12-0-0-12-0-12\-3~------------------------|
C|-12-0-0-12-0-0-12-0-12-15-12-0-0-12-0-0-12-0-12\-3~------------------------|


 Thank you for using my tab, hope learning it goes well!


************************************
| h   Hammer-on
| b   Bend
| /   Slide up
| \   Slide down
| ~   Vibrato
************************************
Suggest correction
Creating personal tab
Creating personal tab
You can edit any tab online and save it as your Personal.

You can edit, replace or remove any tab part or add personal notes – all changes will be seen only by you.

Personal tabs can be accessed anytime from any device, even offline.
Learn more »
Give kudos to tab author, rate the tab!
1 2 3 4 5
comments
print report bad tab
guest
You may want to rate the tab now too:
select rating
Wanna post a correction for this tab? Suggest correction