Oops, an error
Loading. Please wait.

Howl tab

9,286 views 84 this week
3 commentsread comments
1 2 3 4 5
x 8
add to favorites
×
Save as Personal and add changes to this tab that will be seen only by you. Learn more ›
×
You can save this tab as Personal to edit and correct it or add notes. All changes will be seen only by you. Learn more »
launch autoscroll
font size
0
reset
how to read this tab
guitar tuner
edit
Autoscroll
slow
fast
+/-
esc
set tempo
stop
Author
Tuning: DADGAD
Tab by faceingkind
Cover Video: https://www.youtube.com/watch?v=MWsWSmd5swA

Lately it's hard to let you know
D|-0--0--0--0--0--0--0--0-|--0--0--0--0--0--0--0--0-|-0--0--0--0--0--0--0--0--0--0--0--0--0--0--0--0-------|
A|-0--0--0--0--0--0--0--0-|--0--0--0--0--0--0--0--0-|-0--0--0--0--0--0--0--0--0--0--0--0--0--0--0--0-------|
G|-5--5--5--5--5--5--5--5-|--5--5--5--5--5--5--5--5-|-5--5--5--5--5--5--5--5--5--5--5--5--5--5--5--5-------|
D|-5--5--5--5--5--5--5--5-|--3--3--3--3--3--3--3--3-|-3--3--3--3--3--3--3--3--3--3--3--3--3--3--3--3-------|x5
A|-3--3--3--3--3--3--3--3-|--5--5--5--5--5--5--5--5-|-1--1--1--1--1--1--1--1--1--1--1--1--1--1--1--1-------|
D|------------------------|-------------------------|------------------------------------------------------|


I'll look into the future
D|-0--0--0--0--0--0--0--0-|--0--0--0--0--0--0--0--0-|-0--0--0--0--0--0--0--0|-0--0--0--0--0--0--0--0-------|
A|-0--0--0--0--0--0--0--0-|--0--0--0--0--0--0--0--0-|-0--0--0--0--0--0--0--0|-0--0--0--0--0--0--0--0-------|
G|-5--5--5--5--5--5--5--5-|--5--5--5--5--5--5--5--5-|-5--5--5--5--5--5--5--5|-5--5--5--5--5--5--5--5-------|
D|-5--5--5--5--5--5--5--5-|--5--5--5--5--5--5--5--5-|-3--3--3--3--3--3--3--3|-3--3--3--3--3--3--3--3-------|
A|-3--3--3--3--3--3--3--3-|--4--4--4--4--4--4--4--4-|-5--5--5--5--5--5--5--5|-1--1--1--1--1--1--1--1-------|
D|------------------------|-------------------------|-----------------------|------------------------------|


Pre-Chorus: I'm never gonna sleep again
D|---------------------------------------------------------------------------------------------------------|
A|--10--10--10--10--10--10--10--10--10--10--10--10--10--10--10--10-----------------------------------------|
G|--10--10--10--10--10--10--10--10--10--10--10--10--10--10--10--10-----------------------------------------|
D|--10--10--10--10--10--10--10--10--10--10--10--10--10--10--10--10-----------------------------------------|
A|--8---8---8---8---8---8---8---8---8---8---8---8---8---8---8---8------------------------------------------|
D|---------------------------------------------------------------------------------------------------------|


I get to do it all wrong
D|--0---0---0---0---0---0---0---0---0---0---0---0---0---0---0---0------------------------------------------|
A|--10--10--10--10--10--10--10--10--10--10--10--10--10--10--10--10-----------------------------------------|
G|--9---9---9---9---9---9---9---9---9---9---9---9---9---9---9---9------------------------------------------|
D|--10--10--10--10--10--10--10--10--10--10--10--10--10--10--10--10-----------------------------------------|
A|--0---0---0---0---0---0---0---0---0---0---0---0---0---0---0---0------------------------------------------|
D|---------------------------------------------------------------------------------------------------------|


I'm never gonna sleep again
D|---------------------------------------------------------------------------------------------------------|
A|--10--10--10--10--10--10--10--10--10--10--10--10--10--10--10--10-----------------------------------------|
G|--10--10--10--10--10--10--10--10--10--10--10--10--10--10--10--10-----------------------------------------|
D|--8---8---8---8---8---8---8---8---8---8---8---8---8---8---8---8------------------------------------------|
A|--8---8---8---8---8---8---8---8---8---8---8---8---8---8---8---8------------------------------------------|
D|--8---8---8---8---8---8---8---8---8---8---8---8---8---8---8---8------------------------------------------|


Again...
D|---------------------------------------------------------------------------------------------------------|
A|--12--12--12--12--12--12--12--12--12--12--12--12--12--12--12--12-----------------------------------------|
G|--10--10--10--10--10--10--10--10--10--10--10--10--10--10--10--10-----------------------------------------|
D|--8---8---8---8---8---8---8---8---8---8---8---8---8---8---8---8------------------------------------------|
A|--8---8---8---8---8---8---8---8---8---8---8---8---8---8---8---8------------------------------------------|
D|--8---8---8---8---8---8---8---8---8---8---8---8---8---8---8---8------------------------------------------|


Chorus: Cause lately it's hard to let you know
D|-0--0--0--0--0--0--0--0-|--0--0--0--0--0--0--0--0-|-0--0--0--0--0--0--0--0--0--0--0--0--0--0--0--0|---10\|
A|-0--0--0--0--0--0--0--0-|--0--0--0--0--0--0--0--0-|-0--0--0--0--0--0--0--0--0--0--0--0--0--0--0--0|---10\|
G|-5--5--5--5--5--5--5--5-|--5--5--5--5--5--5--5--5-|-5--5--5--5--5--5--5--5--5--5--5--5--5--5--5--5|---10\|
D|-5--5--5--5--5--5--5--5-|--3--3--3--3--3--3--3--3-|-3--3--3--3--3--3--3--3--3--3--3--3--3--3--3--3|x3-10\|
A|-3--3--3--3--3--3--3--3-|--5--5--5--5--5--5--5--5-|-1--1--1--1--1--1--1--1--1--1--1--1--1--1--1--1|---8\-|
D|------------------------|-------------------------|-----------------------------------------------|------|


Verse 2: The stitches burst...
D|-0--0--0--0--0--0--0--0-|--0--0--0--0--0--0--0--0-|-0--0--0--0--0--0--0--0--0--0--0--0--0--0--0--0-------|
A|-0--0--0--0--0--0--0--0-|--0--0--0--0--0--0--0--0-|-0--0--0--0--0--0--0--0--0--0--0--0--0--0--0--0-------|
G|-5--5--5--5--5--5--5--5-|--5--5--5--5--5--5--5--5-|-5--5--5--5--5--5--5--5--5--5--5--5--5--5--5--5-------|
D|-5--5--5--5--5--5--5--5-|--3--3--3--3--3--3--3--3-|-3--3--3--3--3--3--3--3--3--3--3--3--3--3--3--3-------|
A|-3--3--3--3--3--3--3--3-|--5--5--5--5--5--5--5--5-|-1--1--1--1--1--1--1--1--1--1--1--1--1--1--1--1-------|
D|------------------------|-------------------------|------------------------------------------------------|


Why can't I see this time
D|-0--0--0--0--0--0--0--0-|--0--0--0--0--0--0--0--0-|-0--0--0--0--0--0--0--0|-0--0--0--0--0--0--0--0-------|
A|-0--0--0--0--0--0--0--0-|--0--0--0--0--0--0--0--0-|-0--0--0--0--0--0--0--0|-0--0--0--0--0--0--0--0-------|
G|-5--5--5--5--5--5--5--5-|--5--5--5--5--5--5--5--5-|-5--5--5--5--5--5--5--5|-5--5--5--5--5--5--5--5-------|
D|-5--5--5--5--5--5--5--5-|--5--5--5--5--5--5--5--5-|-3--3--3--3--3--3--3--3|-3--3--3--3--3--3--3--3-------|
A|-3--3--3--3--3--3--3--3-|--4--4--4--4--4--4--4--4-|-5--5--5--5--5--5--5--5|-1--1--1--1--1--1--1--1-------|
D|------------------------|-------------------------|-----------------------|------------------------------|


Pre-Chorus: I'm never gonna sleep again
D|---------------------------------------------------------------------------------------------------------|
A|--10--10--10--10--10--10--10--10--10--10--10--10--10--10--10--10-----------------------------------------|
G|--10--10--10--10--10--10--10--10--10--10--10--10--10--10--10--10-----------------------------------------|
D|--10--10--10--10--10--10--10--10--10--10--10--10--10--10--10--10-----------------------------------------|
A|--8---8---8---8---8---8---8---8---8---8---8---8---8---8---8---8------------------------------------------|
D|---------------------------------------------------------------------------------------------------------|


I get to do it all wrong
D|--0---0---0---0---0---0---0---0---0---0---0---0---0---0---0---0------------------------------------------|
A|--10--10--10--10--10--10--10--10--10--10--10--10--10--10--10--10-----------------------------------------|
G|--9---9---9---9---9---9---9---9---9---9---9---9---9---9---9---9------------------------------------------|
D|--10--10--10--10--10--10--10--10--10--10--10--10--10--10--10--10-----------------------------------------|
A|--0---0---0---0---0---0---0---0---0---0---0---0---0---0---0---0------------------------------------------|
D|---------------------------------------------------------------------------------------------------------|


I'm never gonna sleep again
D|---------------------------------------------------------------------------------------------------------|
A|--10--10--10--10--10--10--10--10--10--10--10--10--10--10--10--10-----------------------------------------|
G|--10--10--10--10--10--10--10--10--10--10--10--10--10--10--10--10-----------------------------------------|
D|--8---8---8---8---8---8---8---8---8---8---8---8---8---8---8---8------------------------------------------|
A|--8---8---8---8---8---8---8---8---8---8---8---8---8---8---8---8------------------------------------------|
D|--8---8---8---8---8---8---8---8---8---8---8---8---8---8---8---8------------------------------------------|


Again
D|---------------------------------------------------------------------------------------------------------|
A|--12--12--12--12--12--12--12--12--12--12--12--12--12--12--12--12-----------------------------------------|
G|--10--10--10--10--10--10--10--10--10--10--10--10--10--10--10--10-----------------------------------------|
D|--8---8---8---8---8---8---8---8---8---8---8---8---8---8---8---8------------------------------------------|
A|--8---8---8---8---8---8---8---8---8---8---8---8---8---8---8---8------------------------------------------|
D|--8---8---8---8---8---8---8---8---8---8---8---8---8---8---8---8------------------------------------------|


Chorus: Cause baby it's hard to let you know
D|-0--0--0--0--0--0--0--0-|--0--0--0--0--0--0--0--0-|-0--0--0--0--0--0--0--0--0--0--0--0--0--0--0--0-------|
A|-0--0--0--0--0--0--0--0-|--0--0--0--0--0--0--0--0-|-0--0--0--0--0--0--0--0--0--0--0--0--0--0--0--0-------|
G|-5--5--5--5--5--5--5--5-|--5--5--5--5--5--5--5--5-|-5--5--5--5--5--5--5--5--5--5--5--5--5--5--5--5-------|
D|-5--5--5--5--5--5--5--5-|--3--3--3--3--3--3--3--3-|-3--3--3--3--3--3--3--3--3--3--3--3--3--3--3--3-------|x3
A|-3--3--3--3--3--3--3--3-|--5--5--5--5--5--5--5--5-|-1--1--1--1--1--1--1--1--1--1--1--1--1--1--1--1-------|
D|------------------------|-------------------------|------------------------------------------------------|


Cause lately it's hard to let you know...
D|---------------------------------------------------------------------------------------------------------|
A|-3--3--3--3--3--3--3--3---5--5--5--5--5--5--5--5---------------------------------------------------------|
G|-0--0--0--0--0--0--0--0---0--0--0--0--0--0--0--0---------------------------------------------------------|
D|-x--x--x--x--x--x--x--x---x--x--x--x--x--x--x--x---------------------------------------------------------|
A|-3--3--3--3--3--3--3--3---5--5--5--5--5--5--5--5---------------------------------------------------------|
D|---------------------------------------------------------------------------------------------------------|


Learn....
D|---------------------------------------------------------------------------------------------------------|
A|---------------------------------------------------------------------------------------------------------|
G|---------------------------------------------------------------------------------------------------------|
D|--8-----8-------8------8-----8-------8------8-----8-------8------8-----8-------8-------------------------|
A|----7-8---8-7-8----------7-8---8-7-8----------7-8---8-7-8----------7-8---8-7-8---------------------------|
D|------------------8------------------------------------------8-------------------------------------------|


Chorus: Ohhhh... So I'm gonna howl like an animal
D|-0--0--0--0--0--0--0--0-|--0--0--0--0--0--0--0--0-|-0--0--0--0--0--0--0--0--0--0--0--0--0--0--0--0-------|
A|-0--0--0--0--0--0--0--0-|--0--0--0--0--0--0--0--0-|-0--0--0--0--0--0--0--0--0--0--0--0--0--0--0--0-------|
G|-5--5--5--5--5--5--5--5-|--5--5--5--5--5--5--5--5-|-5--5--5--5--5--5--5--5--5--5--5--5--5--5--5--5-------|
D|-5--5--5--5--5--5--5--5-|--3--3--3--3--3--3--3--3-|-3--3--3--3--3--3--3--3--3--3--3--3--3--3--3--3-------|x3
A|-3--3--3--3--3--3--3--3-|--5--5--5--5--5--5--5--5-|-1--1--1--1--1--1--1--1--1--1--1--1--1--1--1--1-------|
D|------------------------|-------------------------|------------------------------------------------------|


Cause lately it's hard to let you know
D|---------------------------------------------------------------------------------------------------------|
A|-3--3--3--3--3--3--3--3---5--5--5--5--5--5--5--5---------------------------------------------------------|
G|-0--0--0--0--0--0--0--0---0--0--0--0--0--0--0--0---------------------------------------------------------|
D|-x--x--x--x--x--x--x--x---x--x--x--x--x--x--x--x---------------------------------------------------------|
A|-3--3--3--3--3--3--3--3---5--5--5--5--5--5--5--5---------------------------------------------------------|
D|---------------------------------------------------------------------------------------------------------|


Lately it's hard to let you know
D|-0--0--0--0--0--0--0--0-|--0--0--0--0--0--0--0--0-|-0--0--0--0--0--0--0--0--0--0--0--0--0--0--0--0|-------|
A|-0--0--0--0--0--0--0--0-|--0--0--0--0--0--0--0--0-|-0--0--0--0--0--0--0--0--0--0--0--0--0--0--0--0|---10--|
G|-5--5--5--5--5--5--5--5-|--5--5--5--5--5--5--5--5-|-5--5--5--5--5--5--5--5--5--5--5--5--5--5--5--5|---10--|
D|-5--5--5--5--5--5--5--5-|--3--3--3--3--3--3--3--3-|-3--3--3--3--3--3--3--3--3--3--3--3--3--3--3--3|x3-10-8|
A|-3--3--3--3--3--3--3--3-|--5--5--5--5--5--5--5--5-|-1--1--1--1--1--1--1--1--1--1--1--1--1--1--1--1|---8--8|
D|------------------------|-------------------------|-----------------------------------------------|------8|


thanks for watching. If you still have problems with this song you can check out my cover of Howl on guitar. 
Link is on top. Cheers!!!















************************************

| x   Dead note
| \   Slide down


************************************
Suggest correction
Creating personal tab
Creating personal tab
You can edit any tab online and save it as your Personal.

You can edit, replace or remove any tab part or add personal notes – all changes will be seen only by you.

Personal tabs can be accessed anytime from any device, even offline.
Learn more »
comments
print report bad tab
3 comments total.
-1 reply
SatchQ 10 Jul 18, 2016 09:22 AM

It's a pretty considerable stretch to play this chord.

D|--0--|
A|--0--|
G|--5--|
D|--3--|
A|--1--|
D|-----|


It's much easier to play this chord instead.

D|------|
A|--10--|
G|--10--|
D|--8---|
A|--8---|
D|--8---|

+2 reply
faceingkind 359 Jul 24, 2016 05:00 AM

yeah the stretch chord is pretty tough but it's the way Simon plays it.

You can also play:

D|--0--|
A|--3--|
G|--X--|
D|--3--|
A|--1--|
D|-----|

it's the same chord but less tricky

guest
You may want to rate the tab now too:
select rating
Wanna post a correction for this tab? Suggest correction