Oops, an error
Loading. Please wait.

Liberate The Illiterate bass

version 1
version 1

Whole song

Interactive

1,328 views 1 this week
no commentswrite comment
1 2 3 4 5
2 more votes to show rating
add to favorites
×
Save as Personal and add changes to this tab that will be seen only by you. Learn more ›
×
You can save this tab as Personal to edit and correct it or add notes. All changes will be seen only by you. Learn more »
launch autoscroll
font size
0
reset
guitar tuner
edit
Autoscroll
slow
fast
+/-
esc
set tempo
stop
Author
Difficulty
Biffy Clyro
Liberate The Illiterate/A Mong Among Mingers
The Vertigo of Bliss
D A D G

Verse (0:25)

g|-------------------------------------------------------------------------
d|-------------------------------------------------------------------------
a|---3-3--3-3-3--3--------------------7-7--7-7-7--7-7-10-10--10-10-10--9-7-
D|-------------------4-4--4-4-4--4-4---------------------------------------

Pre-Bridge (0:51)
g|-------------------------------
d|-------------------------------
a|---3--2------------------------
D|------------0---2-2-2-2-2--0---

g|-------------------------------------------------------
d|-------------------------------------------------------
a|---3--2------------------------------------------------
D|------------0----------------------2-0-2--2-0-2--2-0--- Bass Overdrive pedal used
here

g|-----------------------------------------------
d|-----------------------------------------------
a|------------------------7-5-7--7-5-7--7-5------
D|-----------------------------------------------

Bridge (1:13)
g|---------------------------------------------
d|---------------------------------------------
a|---------------------------------------------
D|---2-0-2--2-0-2--6--0--2-0-2--2-0-2--6-7-0---

g|------------------------------------------------------------
d|------------------------------------------------------------
a|------------------------------------------------------------
D|---2-0-2--2-0-2--6--7--9--0-0-0-0-0-0-0-0-0-0-0-0-0-0-0-0---

Chorus (1:23)
g|--------------------------------------------------------------
d|--------------------------------------------------------------
a|--------------------------------------------------------------
D|---4-4-4-4-4-4-4-4-4-4-4-4-4-4-4-4-7-7-7-7-7-7-7-7-7-7-7-7-7--

g|-------------------------------------
d|-------------------------------------
a|-------------------------------------
D|---4-4-4-4-4-4-4-4-4-4-4-4-4-4-4-4---

g|----------------------------------------
d|----------------------------------------
a|----------------------------------------
D|---0-0-0-0-2-2-2-2--4-2-4-x-4-2-4-x-x--- x2

g|---------------------------------------------
d|---------------------------------------------
a|---------------------------------------------
D|---0--0-0-0-0--4--4-4-4-4--x3-----2-2-0-0----

Verse (play same as verse1) (2:09)

Chorus (2:55)

g|-------------------------------------
d|-------------------------------------
a|-------------------------------------
D|---4-4-4-4-4-4-4-4-4-4-4-4-4-4-4-4---

g|----------------------------------------
d|----------------------------------------
a|----------------------------------------
D|---0-0-0-0-2-2-2-2--4-2-4-x-4-2-4-x-x--- x2

g|---------------------------------------------
d|---------------------------------------------
a|---------------------------------------------
D|---0--0-0-0-0--4--4-4-4-4--x3-----2-2-0-0----

Post-Chorus (3:23)
g|---------------------------------
d|---------------------------------
a|---------------------------------
D|---7--3--4--3--6--7--12---------- (no bass here, but still fun to play)

g|-------------------------------------------------------------------
d|-------------------------------------------------------------------
a|-------------------------------------------------------------------
D|---7-7-7-7-7-7-7-7-3-3-3-3-3-3-3-3-4-4-4-4-4-4-4-4-3-3-3-3-3-3-3-3-

g|------------------------------------------
d|------------------------------------------
a|------------------------------------------
D|---6-6-6-6-6-6-6-6-7-7-7-7-7-7-7-7--------


Pre-Outro Chorus (3:59)
g|-------------------
d|-------------------
a|-------------------
D|---0--0-0-0-0--0-0- (Bass comes back here)
(repeat many times)

Outro Chorus (4:12)
g|-----------------------------------
d|-----------------------------------
a|-----------------------------------
D|---7-7-7-7-7-7-7-7-0-0-0-0-0-0-0-0-
(repeat)

Outro (4:39)
"Liberate the Illiterate"
g|-------------------------------------------
d|----------7*-----------------12*-----------
a|-------------------------------------------
D|---7*-----------7/-12*--------------------- x2

g|---------------9h7-------------------------
d|----------7h9h7--------------12h14h12----
a|-------------------------------------------
D|---7*--------------12*--------------------- 

g|-------------------------------------------
d|----------7h9h7--------------12h14h12----
a|-------------------------------------------
D|---7*--------------12*--------------------- 

g|---------------9h7-------------------------
d|----------7h9h7--------------12h14h12----
a|-------------------------------------------
D|---7*--------------12*--------------------- 

g|-------------------------------------------
d|----------7h9h7----------------------------
a|-------------------------------------------
D|---7*--------------12*--------------------- 
Suggest correction
Creating personal tab
Creating personal tab
You can edit any tab online and save it as your Personal.

You can edit, replace or remove any tab part or add personal notes – all changes will be seen only by you.

Personal tabs can be accessed anytime from any device, even offline.
Learn more »
Give kudos to tab author, rate the tab!
1 2 3 4 5
comments
print report bad tab
guest
You may want to rate the tab now too:
select rating
Wanna post a correction for this tab? Suggest correction