Oops, an error
Loading. Please wait.

Little Hospitals bass

version 1
version 1

Whole song

Interactive

1,946 views 6 this week
2 commentsread comments
1 2 3 4 5
1 last vote to show rating
add to favorites
×
Save as Personal and add changes to this tab that will be seen only by you. Learn more ›
×
You can save this tab as Personal to edit and correct it or add notes. All changes will be seen only by you. Learn more »
launch autoscroll
font size
0
reset
guitar tuner
edit
Autoscroll
slow
fast
+/-
esc
set tempo
stop
Biffy Clyro
Little Hospitals Bass Tab
From the album: Opposites
By: Steve Quantick - www.stevequantick.co.uk

Another great song from Opposites by Biffy Clyro

Drop C# Tuning - C# G# C# F# 


Guitar Intro then...

0:04 - Intro
|-----------------|
|-----------------|
|-----------------|
|---12-11-10-9----|

|----------------------------------------------------------------------------------|
|----------------------------------------------------------------------------------|
|----------------------------------------------------------------------------------|
|---9-9-12-12---5/12-12-12-12-12-12-12-----9-9-12-12---5/12-12-12-12-11-10-9-------|

|------------------------------------------------------------------------|
|------------------------------------------------------------------------|
|-----------------------------------------7-7-7-7------------------------|
|---9-9-12-12---5/12-12-12-12-12-12-12--------------5-5-5-5-5-5-5-5-5----|


0:16 - Verse 1 (x2)
|----------------------------------------------------------------------------------|
|----------------------------------------------------------------------------------|
|----------------------------------------------------------------------------------|
|---9-9-12-12---5/12-12-12-12-12-12-12-----9-9-12-12---5/12-12-12-12-11-10-9-------|
 
|------------------------------------------------------------------------|
|------------------------------------------------------------------------|
|-----------------------------------------7-7-7-7------------------------| 
|---9-9-12-12---5/12-12-12-12-12-12-12--------------5-5-5-5-5-5-5-5-5----|


0:37 - Pre chorus
|---------------------------------------------------------------|
|---------------------------------------------------------------|
|---------------------------------------------------------------|
|---9-9-7-9--9-7-5-5-4-5-7-7--7-------9-9-7-9--9-7-5-5-4-0---0--|

|-------------------------------------------------------------------------|
|-------------------------------------------------------------------------|
|-------------------------------------------------------------------------|
|---9-9-7-9--9-7-5-5-4-5-7--5-5-4-5-7---2-2-2-2-2-2-2-2-2-2-2-2-2-2-2-2---|


0:48 - Chorus
|---------------------------------------------------------------------|
|---------------------------------------------------------------------|
|---------------------------------------------------------------------|
|-5-5-5-5-5-5-5-5-5-5-5-5-5-5-5-5-0-0-0-0-0-0-0-0-0-7-7-7-7-7-7-7-7---|
 
|---------------------------------------------------------------------|
|---------------------------------------------------------------------|
|---------------------------------------------------------------------|
|-5-5-5-5-5-5-5-5-5-5-5-5-5-5-5-5-0-0-0-0-0-0-0-0-9-9-9-9-9-9-9-9-----|

|---------------------------------------------------------------------|
|---------------------------------------------------------------------|
|---------------------------------------------------------------------|
|-10-10-10-10-10-10-0-------------------------------------------------|


1:02 - Verse 2 (x2)
|----------------------------------------------------------------------------------|
|----------------------------------------------------------------------------------|
|----------------------------------------------------------------------------------|
|---9-9-12-12---5/12-12-12-12-12-12-12-----9-9-12-12---5/12-12-12-12-11-10-9-------|
 
|------------------------------------------------------------------------|
|------------------------------------------------------------------------|
|-----------------------------------------7-7-7-7------------------------| 
|---9-9-12-12---5/12-12-12-12-12-12-12--------------5-5-5-5-5-5-5-5-5----|


1:24 - Pre chorus
|---------------------------------------------------------------|
|---------------------------------------------------------------|
|---------------------------------------------------------------|
|---9-9-7-9--9-7-5-5-4-5-7-7--7-------9-9-7-9--9-7-5-5-4-0---0--|

|-------------------------------------------------------------------------|
|-------------------------------------------------------------------------|
|-------------------------------------------------------------------------|
|---9-9-7-9--9-7-5-5-4-5-7--5-5-4-5-7---2-2-2-2-2-2-2-2-2-2-2-2-2-2-2-2---|


1:37 - Chorus
|---------------------------------------------------------------------|
|---------------------------------------------------------------------|
|---------------------------------------------------------------------|
|-5-5-5-5-5-5-5-5-5-5-5-5-5-5-5-5-0-0-0-0-0-0-0-0-0-7-7-7-7-7-7-7-7---|
 
|---------------------------------------------------------------------|
|---------------------------------------------------------------------|
|---------------------------------------------------------------------|
|-5-5-5-5-5-5-5-5-5-5-5-5-5-5-5-5-0-0-0-0-0-0-0-0-9-9-9-9-9-9-9-9-----|

|---------------------------------------------------------------------|
|---------------------------------------------------------------------|
|---------------------------------------------------------------------|
|-10-10-10-10-10-10-0-----10-10-10-10-10-10-0-------------------------|


1:51 - Bridge (with Kazoo) (not quite sure about this part but this sounds right)
|-----------------------------------|
|-----------------------------------|
|-----------------------10-9--------| x2
|-9---9---9999----9--9--------12-5--|

|-----------------------------|
|-----------------------------|
|-----------------------------| x2
|-5-5--5555----5-5--5555------|

|-----------------------------|
|-----------------------------|
|-----------------------------| x1
|-2-2--2222----2-2--2222------|

|-----------------------------|
|-----------------------------|
|-----------------------------| x1
|-7-7--7777----7--------------|


2:16 - First Part of the Ending (x2)
|-----------------------------------------------------|
|-----------------------------------------------------|
|-----------------------------------------------------|
|-0--0--12--12-12-12-12-12---0--0--12--12-12-12-12-12-|

|----------------------------------------------|
|----------------------------------------------|
|----------------------------------------------|
|-5--5--5-5-5-5-5-5----7--7--7-7-7-7-7-7-------|


2:32 - Second Part of the Ending (x2)
|-----------------------------------------|
|-----------------------------------------|
|-----------------------------------------| x2
|-5-5-5-5-5-5-4-5----5-5-5--5-5-5-4-0--7--|

|------------------------------------------|
|------------------------------------------|
|------------------------------------------| x2
|-0-0-0-0-0-0-0-0----0-0-0-0-0-0-0-0--7----|


3:06 - Third Part of the Ending
|-------------------------------------------------------------------------------|
|-------------------------------------------------------------------------------|
|-------------------------------------------------------------------------------| x3
|---9-9-12-12---5/12-12-12-12-12-12-12-----9-9-12-12---5/12-12-12-12-11-10-9----|

|----------------------------------------------------|
|----------------------------------------------------|
|----------------------------------------------------| x1
|---9-9-12-12----5/12-12-12-12-11-10-9--8-7-6-5------|

            
            
Suggest correction
Creating personal tab
Creating personal tab
You can edit any tab online and save it as your Personal.

You can edit, replace or remove any tab part or add personal notes – all changes will be seen only by you.

Personal tabs can be accessed anytime from any device, even offline.
Learn more »
Give kudos to tab author, rate the tab!
1 2 3 4 5
comments
print report bad tab
2 comments total.
0 reply
jimmybassjohnst 10 Jan 28, 2015 03:14 AM

Wrong tuning
C# G# C# F#

guest
You may want to rate the tab now too:
select rating
Wanna post a correction for this tab? Suggest correction