Oops, an error
Loading. Please wait.

Little Hospitals Tab

version 2
version 2

Whole song

Interactive

124 views 6 this week
no commentswrite comment
1 2 3 4 5
3 more votes to show rating
add to favorites
launch autoscroll
font size
0
reset
how to read this tab
guitar tuner
Autoscroll
slow
fast
+/-
esc
set tempo
stop
Help us to improve Ultimate-Guitar.com Take our survey!
×
Author
Tuning
C# G# C# F# A# D#
Based of as many videos of live footage I could find. 
What he plays live is on the album version but with more layering.

not 100% but i think pretty close (sometimes he plays the song differently on different live versions)

[Intro]

D#|---------------------------------------------------------------------------|
A#|---------------------------------------------------------------------------|
F#|--8-8-11-11-------11-11---11-11/14-11---8-8-11-11-------11-11---11-10-9--8-|
C#|--------------9-9-----------------------------------9-9---------12-11-10-9-|
G#|----------------------------------------------------------------x--x--x--x-|
C#|----------------------------------------------------------------12-11-10-9-|
                             (very quick slide)
[Main Riff]

D#|---------------------------------------------------------------------------|
A#|---------------------------------------------------------------------------|
F#|--8-8-11-11---4-4-11-11---11-11-11-11---8-8-11-11---4-4-11-11---11-10-9--8-|
C#|--9-9-12-12---5-5-12-12---12-12-12-12---9-9-12-12---5-5-12-12---12-11-10-9-|
G#|--x-x-x--x----x-x-x--x----x--x--x--x----x-x-x--x----x-x-x--x----x--x--x--x-|
C#|--9-9-12-12---5-5-12-12---12-12-12-12---9-9-12-12---5-5-12-12---12-11-10-9-|

D#|---------------------------------------------------------------------------|
A#|---------------------------------------------------------------------------|
F#|--8-8-11-11---4-4-11-11---11-11-11-11---12-12-12-12--12-4-4-4-4---4-4-4-2--|
C#|--9-9-12-12---5-5-12-12---12-12-12-12---0--0--0--0---0--0-0-0-0---0-0-0-0--|
G#|--x-x-x--x----x-x-x--x----x--x--x--x----x--x--x--x---x--x-x-x-x---x-x-x-0--|
C#|--9-9-12-12---5-5-12-12---12-12-12-12---14-14-14-14--14-5-5-5-5---5-5-5-0--|
                                          (listen carefully for the strumming here)

[Verse]

D#|---------------------------------------------------------------------------|
A#|---------------------------------------------------------------------------|
F#|-------------------------11/14\11-------------------------------11-10-9-8--|
C#|-------------------------0--0--0-------------------------------------------|
G#|---------------------------------------------------------------------------|
C#|---------------------------------------------------------------------------|

D#|---------------------------------------------------------------------------|
A#|---------------------------------------------------------------------------|
F#|-------------------------11/14\11-------12-12-12-12--12-4-4-4-4---4-4-4-2--|
C#|-------------------------0--0--0--------0--0--0--0---0--0-0-0-0---0-0-0-0--|
G#|----------------------------------------x--x--x--x---x--x-x-x-x---x-x-x-0--|
C#|----------------------------------------14-14-14-14--14-5-5-5-5---5-5-5-0--|

D#|---------------------------------------------------------------------------|
A#|---------------------------------------------------------------------------|
F#|-------------------------11/14\11-------------------------------11-10-9-8--|
C#|-------------------------0--0--0-------------------------------------------|
G#|---------------------------------------------------------------------------|
C#|---------------------------------------------------------------------------|

D#|---------------------------------------------------------------------------|
A#|---------------------------------------------------------------------------|
F#|-9-10-11-----------------11/14\11-------12-12-12-12--12-4-4-4-4---4-4-4-2--|
C#|-------------------------0--0--0--------0--0--0--0---0--0-0-0-0---0-0-0-0--|
G#|----------------------------------------x--x--x--x---x--x-x-x-x---x-x-x-0--|
C#|----------------------------------------14-14-14-14--14-5-5-5-5---5-5-5-0--|

[Pre-chorus]

D#|-----------------------------------------------------------------|
A#|-----------------------------------------------------------------|
F#|-------------------------------------------------------2---2-2---|
C#|---9-9-7-9---9-7-5---5-4-5-7---5+--9-9-7-9---9-7-5-5-4-0---0-0---|
G#|---x-x-x-x---x-x-x---x-x-x-x---x---x-x-x-x---x-x-x-x-x-0---0-0---|
C#|---9-9-7-9---9-7-5---5-4-5-7---5+--9-9-7-9---9-7-5-5-4-0---0-0---|

D#|---------------------------------------------------0-0-0-0-0-0-0-0-0-0-0-0-0-0-0-|
A#|-------------------------------------------------0-0-0-0-0-0-0-0-0-0-0-0-0-0-0-0-|
F#|-------------------------------------------------x-x-x-x-x-x-x-x-x-x-x-x-x-x-x-x-|
C#|---9-9-7-9---9-7-5---5-4-5-7---5--5-5-4-5-7---2--2-2-2-2-2-2-2-2-2-2-2-2-2-2-2-2-|
G#|---x-x-x-x---x-x-x---x-x-x-x---x--x-x-x-x-x---x--x-x-x-x-x-x-x-x-x-x-x-x-x-x-x-x-|
C#|---9-9-7-9---9-7-5---5-4-5-7---5--5-5-4-5-7---2--2-2-2-2-2-2-2-2-2-2-2-2-2-2-2-2-|


[Chorus]

D#|---------------------------------------------------------------------------|
A#|---------------------------------------------------------------------------|
F#|-4--4-4-4-4-4-6-7-7-7-7-7-7-7-7-11--11-11-11-11-11-11-9--9-9-9-9-9-9-------|
C#|-0--0-0-0-0-0-0-0-0-0-0-0-0-0-0-x---x--x--x--x--x--x--7--7-7-7-7-7-7-------|
G#|-x--x-x-x-x-x-x-x-x-x-x-x-x-x-x-9---9--9--9--9--9--9--7--7-7-7-7-7-7-------|
C#|-5--5-5-5-5-5-5-5-5-5-5-5-5-5-5-0---0--0--0--0--0--0--7--7-7-7-7-7-7-------|

D#|---------------------------------------------------------------------------|
A#|---------------------------------------------------------------------------|
F#|-4--4-4-4-4-4-6-7-7-7-7-7-7-7-7-11--11-11-11-11-11-11-11--11-11-11-11-11-11|
C#|-0--0-0-0-0-0-0-0-0-0-0-0-0-0-0-x---x--x--x--x--x--x--9---9--9--9--9--9--9-|
G#|-x--x-x-x-x-x-x-x-x-x-x-x-x-x-x-9---9--9--9--9--9--9--9---9--9--9--9--9--9-|
C#|-5--5-5-5-5-5-5-5-5-5-5-5-5-5-5-0---0--0--0--0--0--0--9---9--9--9--9--9--9-|

D#|----------------------|
A#|----------------------|
F#|-7-7-7-7-7-7-7-7------|
C#|-5-5-5-5-5-5-5-7------|
G#|-5-5-5-5-5-5-5-5------|
C#|-5-5-5-5-5-5-5-0------|

[Verse 2] 


D#|---------------------------------------------------------------------------|
A#|---------------------------------------------------------------------------|
F#|--8-8-11-11---4-4-11-11---11-11-11-11---8-8-11-11---4-4-11-11---11-10-9--8-|
C#|--9-9-12-12---5-5-12-12---12-12-12-12---9-9-12-12---5-5-12-12---12-11-10-9-|
G#|--x-x-x--x----x-x-x--x----x--x--x--x----x-x-x--x----x-x-x--x----x--x--x--x-|
C#|--9-9-12-12---5-5-12-12---12-12-12-12---9-9-12-12---5-5-12-12---12-11-10-9-|

D#|---------------------------------------------------------------------------|
A#|---------------------------------------------------------------------------|
F#|--8-8-11-11---4-4-11-11---11-11-11-11---12-12-12-12--12-4-4-4-4---4-4-4-2--|
C#|--9-9-12-12---5-5-12-12---12-12-12-12---0--0--0--0---0--0-0-0-0---0-0-0-0--|
G#|--x-x-x--x----x-x-x--x----x--x--x--x----x--x--x--x---x--x-x-x-x---x-x-x-0--|
C#|--9-9-12-12---5-5-12-12---12-12-12-12---14-14-14-14--14-5-5-5-5---5-5-5-0--|

D#|---------------------------------------------------------------------------|
A#|---------------------------------------------------------------------------|
F#|--8-8-11-11---4-4-11-11---11-11-11-11---8-8-11-11---4-4-11-11---11-10-9--8-|
C#|--9-9-12-12---5-5-12-12---12-12-12-12---9-9-12-12---5-5-12-12---12-11-10-9-|
G#|--x-x-x--x----x-x-x--x----x--x--x--x----x-x-x--x----x-x-x--x----x--x--x--x-|
C#|--9-9-12-12---5-5-12-12---12-12-12-12---9-9-12-12---5-5-12-12---12-11-10-9-|

D#|---------------------------------------------------------------------------|
A#|---------------------------------------------------------------------------|
F#|--8-8-11-11---4-4-11-11---11-11-11-11---12-12-12-12--12-4-4-4-4---4-4-4-2--|
C#|--9-9-12-12---5-5-12-12---12-12-12-12---0--0--0--0---0--0-0-0-0---0-0-0-0--|
G#|--x-x-x--x----x-x-x--x----x--x--x--x----x--x--x--x---x--x-x-x-x---x-x-x-0--|
C#|--9-9-12-12---5-5-12-12---12-12-12-12---14-14-14-14--14-5-5-5-5---5-5-5-0--|

[Pre-chorus]

D#|-----------------------------------------------------------------|
A#|-----------------------------------------------------------------|
F#|-------------------------------------------------------2---2-2---|
C#|---9-9-7-9---9-7-5---5-4-5-7---5+--9-9-7-9---9-7-5-5-4-0---0-0---|
G#|---x-x-x-x---x-x-x---x-x-x-x---x---x-x-x-x---x-x-x-x-x-0---0-0---|
C#|---9-9-7-9---9-7-5---5-4-5-7---5+--9-9-7-9---9-7-5-5-4-0---0-0---|

D#|---------------------------------------------------0-0-0-0-0-0-0-0-0-0-0-0-0-0-0-|
A#|-------------------------------------------------0-0-0-0-0-0-0-0-0-0-0-0-0-0-0-0-|
F#|-------------------------------------------------x-x-x-x-x-x-x-x-x-x-x-x-x-x-x-x-|
C#|---9-9-7-9---9-7-5---5-4-5-7---5--5-5-4-5-7---2--2-2-2-2-2-2-2-2-2-2-2-2-2-2-2-2-|
G#|---x-x-x-x---x-x-x---x-x-x-x---x--x-x-x-x-x---x--x-x-x-x-x-x-x-x-x-x-x-x-x-x-x-x-|
C#|---9-9-7-9---9-7-5---5-4-5-7---5--5-5-4-5-7---2--2-2-2-2-2-2-2-2-2-2-2-2-2-2-2-2-|



[Chorus]

D#|---------------------------------------------------------------------------|
A#|---------------------------------------------------------------------------|
F#|-4--4-4-4-4-4-6-7-7-7-7-7-7-7-7-11--11-11-11-11-11-11-9--9-9-9-9-9-9-------|
C#|-0--0-0-0-0-0-0-0-0-0-0-0-0-0-0-x---x--x--x--x--x--x--7--7-7-7-7-7-7-------|
G#|-x--x-x-x-x-x-x-x-x-x-x-x-x-x-x-9---9--9--9--9--9--9--7--7-7-7-7-7-7-------|
C#|-5--5-5-5-5-5-5-5-5-5-5-5-5-5-5-0---0--0--0--0--0--0--7--7-7-7-7-7-7-------|

D#|---------------------------------------------------------------------------|
A#|---------------------------------------------------------------------------|
F#|-4--4-4-4-4-4-6-7-7-7-7-7-7-7-7-11--11-11-11-11-11-11-11--11-11-11-11-11-11|
C#|-0--0-0-0-0-0-0-0-0-0-0-0-0-0-0-x---x--x--x--x--x--x--9---9--9--9--9--9--9-|
G#|-x--x-x-x-x-x-x-x-x-x-x-x-x-x-x-9---9--9--9--9--9--9--9---9--9--9--9--9--9-|
C#|-5--5-5-5-5-5-5-5-5-5-5-5-5-5-5-0---0--0--0--0--0--0--9---9--9--9--9--9--9-|

D#|-------------------------------------------------14--------|
A#|-------------------------------------------------15--------|
F#|-7-7-7-7-7-7-7-7------------14-14-14-14-14-14-14-----------|
C#|-5-5-5-5-5-5-5-7------------14-14-14-14-14-14-14-----------|
G#|-5-5-5-5-5-5-5-5------------0--0--0--0--0--0--0------------|
C#|-5-5-5-5-5-5-5-0-------------------------------------------|
                              (sometimes he plays standard A chord instead)

[Bridge riff]

D#|--------------------------------------------------------|
A#|----------------------12--------------------------------|
F#|--------8------8h9/11------------8----------------------|
C#|-----9-----9------------------9-----9-------------------|
G#|--------------------------------------------------------|
C#|--9------------------------9------------17-16-0---7-----|
                                      (yep simon does that nine to seventeen jump)

D#|--------------------------------------------------------|
A#|----------------------12--------------------------------|
F#|--------8------8h9/11------------8----------------------|
C#|-----9-----9------------------9-----9-------------------|
G#|--------------------------------------------------------|
C#|--9------------------------9------------17-16-0---7-----|

[Bridge Verse]

D#|--------------------------------------------------------|
A#|--------------------------------------------------------|
F#|----------11------11\9/11-----------11------11/14\11\9--|
C#|------12------12----------------12------12--------------|
G#|--10------------------------10--------------------------|
C#|--------------------------------------------------------|

D#|--------------------------------------------------------|
A#|--------------------------------------------------------|
F#|----------11------11\9/11-----------11------11/14\11\9--|
C#|------12------12----------------12------12--------------|
G#|--10------------------------10--------------------------|
C#|--------------------------------------------------------|

D#|--------------------------------------------------------|
A#|--------------------------------------------------------|
F#|----------11------11\9/11-----------11------11/14\11\9--|
C#|------9-------9-----------------9-------9---------------|
G#|--7-------------------------7---------------------------|
C#|--------------------------------------------------------|

D#|--------------------------------------------------------|
A#|--------------------------------------------------------|
F#|----------11------11\9/11---11--11--11----11-11-11-11---|
C#|------9-------9-------------9---9---9-----9--9--9--9----|
G#|----------------------------10--10--10----10-10-10-10---|
C#|--10----------------------------------------------------|


[Interlude]


D#|----------------------------------------------------------|
A#|----------------------------------------------------------|
F#|--11--11--11----11-11-11-11---11--11--11----11-11-11-11---|
C#|--0---0---0-----0--0--0--0----10--10--10----10-10-10-10---|
G#|--0---0---0-----0--0--0--0----0---0---0-----0--0--0--0----|
C#|--0---0---0-----0--0--0--0----0---0---0-----0--0--0--0----|

D#|----------------------------------------------------------|
A#|----------------------------------------------------------|
F#|--12--12--12----12-12-12-12---14--14--14----14-14/16\14---|
C#|--9---9---9-----9--9--9--9----11--11--11----11-11-x--11---|
G#|--10--10--10----10-10-10-10---0---0---0-----0--0--0--0----|
C#|--9---9---9-----9--9--9--9--------------------------------|

D#|----------------------------------------------------------|
A#|----------------------------------------------------------|
F#|--11--11--11----11-11-11-11---11--11--11----11-11-11-11---|
C#|--0---0---0-----0--0--0--0----10--10--10----10-10-10-10---|
G#|--0---0---0-----0--0--0--0----0---0---0-----0--0--0--0----|
C#|--0---0---0-----0--0--0--0----0---0---0-----0--0--0--0----|

D#|----------------------------------------------------------|
A#|----------------------------------------------------------|
F#|--12--12--12----12-12-12-12---14--14--14----14-14/16\14---|
C#|--9---9---9-----9--9--9--9----11--11--11----11-11-x--11---|
G#|--10--10--10----10-10-10-10---0---0---0-----0--0--0--0----|
C#|--9---9---9-----9--9--9--9--------------------------------|


[Interlude 2]

D#|-------------------------------------------------------------|
A#|--3---3---3-----3--3-----3----3---3---3-----3--3-------------|
F#|--4---4---4-----4--4-----4----4---4---4-----4--4-------------|
C#|--x---x---x-----x--x-----x----x---x---x-----x--x-----0----7--|
G#|--5---5---5-----5--5--4--5----5---5---5-----5--5--4--0----7--|
C#|--5---5---5-----5--5--4--5----5---5---5-----5--5--4--0----7--|

D#|-------------------------------------------------------------|
A#|--3---3---3-----3--3-----3----3---3---3-----3--3-------------|
F#|--4---4---4-----4--4-----4----4---4---4-----4--4-------------|
C#|--x---x---x-----x--x-----x----x---x---x-----x--x-----0----7--|
G#|--5---5---5-----5--5--4--5----5---5---5-----5--5--4--0----7--|
C#|--5---5---5-----5--5--4--5----5---5---5-----5--5--4--0----7--|

D#|-------------------------------------------------------------|
A#|-------------------------------------------------------------|
F#|------11--11----11-11-9--11---11--11--11----11-11-9--7-------|
C#|--0---0---0-----0--0--0--0----0---0---0-----0--0--0--0----7--|
G#|--0---0---0-----0--0--0--0----0---0---0-----0--0--0--0----7--|
C#|--0---0---0-----0--0--0--0----0---0---0-----0--0--0--0----7--|

D#|-------------------------------------------------------------|
A#|-------------------------------------------------------------|
F#|------11--11----11-11-9--11---11--11--11----11-11-9--7-------|
C#|--0---0---0-----0--0--0--0----0---0---0-----0--0--0--0----7--|
G#|--0---0---0-----0--0--0--0----0---0---0-----0--0--0--0----7--|
C#|--0---0---0-----0--0--0--0----0---0---0-----0--0--0--0----7--|

D#|-------------------------------------------------------------|
A#|--3---3---3-----3--3-----3----3---3---3-----3--3-------------|
F#|--4---4---4-----4--4-----4----4---4---4-----4--4-------------|
C#|--x---x---x-----x--x-----x----x---x---x-----x--x-----0----7--|
G#|--5---5---5-----5--5--4--5----5---5---5-----5--5--4--0----7--|
C#|--5---5---5-----5--5--4--5----5---5---5-----5--5--4--0----7--|

D#|-------------------------------------------------------------|
A#|--3---3---3-----3--3-----3----3---3---3-----3--3-------------|
F#|--4---4---4-----4--4-----4----4---4---4-----4--4-------------|
C#|--x---x---x-----x--x-----x----x---x---x-----x--x-----0----7--|
G#|--5---5---5-----5--5--4--5----5---5---5-----5--5--4--0----7--|
C#|--5---5---5-----5--5--4--5----5---5---5-----5--5--4--0----7--|

D#|-------------------------------------------------------------|
A#|-------------------------------------------------------------|
F#|------11--11----11-11-9--11---11--11--11----11-11-9--7-------|
C#|--0---0---0-----0--0--0--0----0---0---0-----0--0--0--0----7--|
G#|--0---0---0-----0--0--0--0----0---0---0-----0--0--0--0----7--|
C#|--0---0---0-----0--0--0--0----0---0---0-----0--0--0--0----7--|

D#|-------------------------------------------------------------|
A#|-------------------------------------------------------------|
F#|------11--11----11-11-9--11---11--11--11----11-11-9--11------|
C#|--0---0---0-----0--0--0--0----0---0---0-----0--0--0--0-------|
G#|--0---0---0-----0--0--0--0----0---0---0-----0--0--0--0-------|
C#|--0---0---0-----0--0--0--0----0---0---0-----0--0--0--0-------| 
 

[Outro]
D#|---------------------------------------------------------------------------|
A#|---------------------------------------------------------------------------|
F#|--8-8-11-11---4-4-11-11---11-11-11-11---8-8-11-11---4-4-11-11---11-10-9--8-|
C#|--9-9-12-12---5-5-12-12---12-12-12-12---9-9-12-12---5-5-12-12---12-11-10-9-|
G#|--x-x-x--x----x-x-x--x----x--x--x--x----x-x-x--x----x-x-x--x----x--x--x--x-|
C#|--9-9-12-12---5-5-12-12---12-12-12-12---9-9-12-12---5-5-12-12---12-11-10-9-|

D#|---------------------------------------------------------------------------|
A#|---------------------------------------------------------------------------|
F#|--8-8-11-11---4-4-11-11---11-11-11-11---8-8-11-11---4-4-11-11---11-10-9--8-|
C#|--9-9-12-12---5-5-12-12---12-12-12-12---9-9-12-12---5-5-12-12---12-11-10-9-|
G#|--x-x-x--x----x-x-x--x----x--x--x--x----x-x-x--x----x-x-x--x----x--x--x--x-|
C#|--9-9-12-12---5-5-12-12---12-12-12-12---9-9-12-12---5-5-12-12---12-11-10-9-|

D#|---------------------------------------------------------------------------|
A#|---------------------------------------------------------------------------|
F#|--8-8-11-11---4-4-11-11---11-11-11-11---8-8-11-11---4-4-11-11---11-10-9--8-|
C#|--9-9-12-12---5-5-12-12---12-12-12-12---9-9-12-12---5-5-12-12---12-11-10-9-|
G#|--x-x-x--x----x-x-x--x----x--x--x--x----x-x-x--x----x-x-x--x----x--x--x--x-|
C#|--9-9-12-12---5-5-12-12---12-12-12-12---9-9-12-12---5-5-12-12---12-11-10-9-|

D#|---------------------------------------------------------------------------------------|
A#|---------------------------------------------------------------------------------------|
F#|--8-8-11-11---4-4-11-11---11-11-11-11---8-8-11-11---4-4-11-11---11-10-9--8--7--6--5--4-|
C#|--9-9-12-12---5-5-12-12---12-12-12-12---9-9-12-12---5-5-12-12---12-11-10-9--8--7--6--5-|
G#|--x-x-x--x----x-x-x--x----x--x--x--x----x-x-x--x----x-x-x--x----x--x--x--x--x--x--x--x-|
C#|--9-9-12-12---5-5-12-12---12-12-12-12---9-9-12-12---5-5-12-12---12-11-10-9--8--7--6--5-|


************************************

| x   Dead note
| g   Grace note
| (n) Ghost note
| h   Hammer-on
| p   Pull-off
| r   Release
| >   Accented note
| t   Tapping
| b   Bend
| br  Bend release
| pb  Pre-bend
| pbr Pre-bend release
| /   Slide up
| \   Slide down
| ~   Vibrato
| s   Slap
| P   Pop
| PM  Palm mute
| TR  Trill
| N   Tremolo

************************************
Suggest correction
Give kudos to tab author, rate the tab!
1 2 3 4 5
comments
print report bad tab
guest
You may want to rate the tab now too:
select rating
Wanna post a correction for this tab? Suggest correction