Oops, an error
Loading. Please wait.

Living Is A Problem Because Everything Dies tab

version 4
version 4

Whole song

Interactive

27,135 views 12 this week
6 commentsread comments
1 2 3 4 5
x 18
add to favorites
×
Save as Personal and add changes to this tab that will be seen only by you. Learn more ›
×
You can save this tab as Personal to edit and correct it or add notes. All changes will be seen only by you. Learn more »
launch autoscroll
font size
0
reset
how to read this tab
guitar tuner
edit
Autoscroll
slow
fast
+/-
esc
set tempo
stop
----------------------------------------------------------------------------
          Living is a problem because everything dies - Biffy Clyro
----------------------------------------------------------------------------
Tabbed by: BENJIE
Email: benjieboo@hotmail.co.uk
Please rate this tab

Tuning: DROP C (contrary to some tabs this song is definitely in DROP C)

(The rythm is not perfect, but the music is pretty good. Lyrics at bottom.)

INTRO
d|-------------------------------------------------------------------------|
A|-------------------------------------------------------------------------|
F|-------------------------------------------------------------------------|
C|-------------------------------------------------------------------------|
G|-------------------------------------------------------------------------|
C|-7-7-7-7-7-7-7-7-7-7-7-7-7-7-7-7-7-7-7-7-7-7-7-7-7-7-7-7-7-7-7-7-7-7-7-7-|



e|-------------------------------------------------------------------------|
B|-------------------------------------------------------------------------|
G|-------------------------------------------------------------------------|
D|-------------------------------------------------------------------------|
A|-------------------------------------------------------------------------|
E|7-7-7-7-7-7-7-7-7-7-7-7-7-7-7-7-7-7-7-7-7-7-7-7-7-7-7-7-7-7-7-7-7-7-7-7-7|
  Come on baby do you.................................swimming in memories?

VERSE 1
e|-------------------------------------------------------------------------|
B|-------------------------------------------------------------------------|
G|--------------------------------------------------------7-7-7-7-7-7-7-7-7|
D|7-7-7-7-7-7-7-7-7-7-7-7-7-7-7-7-7-7-3-3-3-3-3-3-3-3-3-3-7-7-7-7-7-7-7-7-7|
A|7-7-7-7-7-7-7-7-7-7-7-7-7-7-7-7-7-7-3-3-3-3-3-3-3-3-3-3-5-5-5-5-5-5-5-5-5|
E|7-7-7-7-7-7-7-7-7-7-7-7-7-7-7-7-7-7-3-3-3-3-3-3-3-3-3-3------------------|
  I fear god because..................This spasm of.......I've had enough...
                         (PLAY TwICE THROUGH)


FILL
e|-------------------------------------------------------------------------|
B|-------------------------------------------------------------------------|
G|----8----0------8----0------8----0---------------------------------------|
D|7-7---10p0--7-7---10p0--7-7---10p0--0--0--0--0-0-------------------------|
A|7-7---------7-7---------7-7---------0--0--0--0-0-------------------------|
E|7-7---------7-7---------7-7---------0--0--0--0-0-------------------------|
                         (PLAY TWICE THROUGH)


CHORUS
e|-------------------------------------------------------------------------|
B|-------------------------------------------------------------------------|
G|10-10-10-9-9-9--------------10-10-10-9-9-9-------------------------------|
D|10-10-10-9-9-9-7-7-7-7-7-7--10-10-10-9-9-9-7-7-7-7-7-7-------------------|
A|8--8--8--7-7-7-7-7-7-7-7-7--8--8--8--7-7-7-7-7-7-7-7-7-------------------|
E|---------------7-7-7-7-7-7-----------------7-7-7-7-7-7-------------------|
    I  pray  to  god         ,that you're right before my eyes


e|-------------------------------------------------------------------------|
B|-------------------------------------------------------------------------|
G|----------8--8--8-8-5--5--5--5--5--5-----------8--8--8-8-----------------|
D|6--6--6-6-8--8--8-8-5--5--5--5--5--5-6--6--6-6-8--8--8-8---5--5--5--5--5-|
A|6--6--6-6-6--6--6-6-3--3--3--3--3--3-6--6--6-6-6--6--6-6---5--5--5--5--5-|
E|6--6--6-6----------------------------6--6--6-6-------------5--5--5--5--5-|
   Bathed   in   white   light    ,   With   halos   in   you   eyes 


e|-------------------------------------------------------------------------|
B|-------------------------------------------------------------------------|
G|5-5-5-5-7-7-7-7-8-8-8-8-15-15-15-12-12-12--7--7--7-7-8--8--8-8-----------|
D|5-5-5-5-7-7-7-7-8-8-8-8-15-15-15-12-12-12--7--7--7-7-8--8--8-8-----------|
A|3-3-3-3-5-5-5-5-6-6-6-6-13-13-13-10-10-10--5--5--5-5-6--6--6-6-----------|
E|-------------------------------------------------------------------------|
    Dont  want  to  was  no  more  time  , Times what we dont have


e|-------------------------------------------------------------------------|
B|-------------------------------------------------------------------------|
G|5-5-5-5-7-7-7-7-8-8-8-8-15-15-15-12-12-12--7--7--7-7-8--8--8-8-5--5--5--5|
D|5-5-5-5-7-7-7-7-8-8-8-8-15-15-15-12-12-12--7--7--7-7-8--8--8-8-5--5--5--5|
A|3-3-3-3-5-5-5-5-6-6-6-6-13-13-13-10-10-10--5--5--5-5-6--6--6-6-3--3--3--3|
E|-------------------------------------------------------------------------|
    Everywhere  I  look  someone  dies,     Wonder when its my turn? 


VERSE 2
e|-------------------------------------------------------------------------|
B|-------------------------------------------------------------------------|
G|--------------------------------------------------------7-7-7-7-7-7-7-7-7|
D|7-7-7-7-7-7-7-7-7-7-7-7-7-7-7-7-7-7-3-3-3-3-3-3-3-3-3-3-7-7-7-7-7-7-7-7-7|
A|7-7-7-7-7-7-7-7-7-7-7-7-7-7-7-7-7-7-3-3-3-3-3-3-3-3-3-3-5-5-5-5-5-5-5-5-5|
E|7-7-7-7-7-7-7-7-7-7-7-7-7-7-7-7-7-7-3-3-3-3-3-3-3-3-3-3------------------|
  Hello do you know me.......
                             (PLAY TWICE THROUGH)


FILL
e|-------------------------------------------------------------------------|
B|-------------------------------------------------------------------------|
G|----8----0------8----0------8----0---------------------------------------|
D|7-7---10p0--7-7---10p0--7-7---10p0--0--0--0--0-0-------------------------|
A|7-7---------7-7---------7-7---------0--0--0--0-0-------------------------|
E|7-7---------7-7---------7-7---------0--0--0--0-0-------------------------|
                             (PLAY TWICE THROUGH)


CHORUS
e|-------------------------------------------------------------------------|
B|-------------------------------------------------------------------------|
G|10-10-10-9-9-9--------------10-10-10-9-9-9-------------------------------|
D|10-10-10-9-9-9-7-7-7-7-7-7--10-10-10-9-9-9-7-7-7-7-7-7-------------------|
A|8--8--8--7-7-7-7-7-7-7-7-7--8--8--8--7-7-7-7-7-7-7-7-7-------------------|
E|---------------7-7-7-7-7-7-----------------7-7-7-7-7-7-------------------|
    I  pray  to  god         ,that you're right before my eyes


e|-------------------------------------------------------------------------|
B|-------------------------------------------------------------------------|
G|----------8--8--8-8-5--5--5--5--5--5-----------8--8--8-8-----------------|
D|6--6--6-6-8--8--8-8-5--5--5--5--5--5-6--6--6-6-8--8--8-8---5--5--5--5-5-5|
A|6--6--6-6-6--6--6-6-3--3--3--3--3--3-6--6--6-6-6--6--6-6---5--5--5--5-5-5|
E|6--6--6-6----------------------------6--6--6-6-------------5--5--5--5-5-5|
   Bathed   in   white   light    ,   With   halos   in   you   eyes 


e|-------------------------------------------------------------------------|
B|-------------------------------------------------------------------------|
G|5-5-5-5-7-7-7-7-8-8-8-8-15-15-15-12-12-12--7--7--7-7-8--8--8-8-----------|
D|5-5-5-5-7-7-7-7-8-8-8-8-15-15-15-12-12-12--7--7--7-7-8--8--8-8-----------|
A|3-3-3-3-5-5-5-5-6-6-6-6-13-13-13-10-10-10--5--5--5-5-6--6--6-6-----------|
E|-------------------------------------------------------------------------|
    Dont  want  to  was  no  more  time  , Times what we dont have


e|-------------------------------------------------------------------------|
B|-------------------------------------------------------------------------|
G|5-5-5-5-7-7-7-7-8-8-8-8-15-15-15-12-12-12--7--7--7-7-8--8--8-8-5--5--5--5|
D|5-5-5-5-7-7-7-7-8-8-8-8-15-15-15-12-12-12--7--7--7-7-8--8--8-8-5--5--5--5|
A|3-3-3-3-5-5-5-5-6-6-6-6-13-13-13-10-10-10--5--5--5-5-6--6--6-6-3--3--3--3|
E|-------------------------------------------------------------------------|
    Everywhere  I  look  someone  dies,     Wonder when its my turn? 


d|-------------------------------------------------------------------------|
A|-------------------------------------------------------------------------|
F|-------------------------------------------------------------------------|
C|-------------------------------------------------------------------------|
G|-------------------------------------------------------------------------|
C|-7-7-7-7-7-7-7-7-7-7-7-7-7-7-7-7-7-7-7-7-7-7-7-7-7-7-7-7-7-7-7-7-7-7-7-77|

        (PLAY THIS NOTE LOADS, NOT SURE HOW MANY TIMES PRECISELY)



CHORUS
e|-------------------------------------------------------------------------|
B|-------------------------------------------------------------------------|
G|10-10-10-9-9-9--------------10-10-10-9-9-9-------------------------------|
D|10-10-10-9-9-9-7-7-7-7-7-7--10-10-10-9-9-9-7-7-7-7-7-7-------------------|
A|8--8--8--7-7-7-7-7-7-7-7-7--8--8--8--7-7-7-7-7-7-7-7-7-------------------|
E|---------------7-7-7-7-7-7-----------------7-7-7-7-7-7-------------------|
    I  pray  to  god         ,that you're right before my eyes


e|-------------------------------------------------------------------------|
B|-------------------------------------------------------------------------|
G|----------8--8--8-8-5--5--5--5--5--5-----------8--8--8-8-----------------|
D|6--6--6-6-8--8--8-8-5--5--5--5--5--5-6--6--6-6-8--8--8-8---5--5--5--5--55|
A|6--6--6-6-6--6--6-6-3--3--3--3--3--3-6--6--6-6-6--6--6-6---5--5--5--5--55|
E|6--6--6-6----------------------------6--6--6-6-------------5--5--5--5--55|
   Bathed   in   white   light    ,   With   halos   in   you   eyes 


e|-------------------------------------------------------------------------|
B|-------------------------------------------------------------------------|
G|5-5-5-5-7-7-7-7-8-8-8-8-15-15-15-12-12-12--7--7--7-7-8--8--8-8-----------|
D|5-5-5-5-7-7-7-7-8-8-8-8-15-15-15-12-12-12--7--7--7-7-8--8--8-8-----------|
A|3-3-3-3-5-5-5-5-6-6-6-6-13-13-13-10-10-10--5--5--5-5-6--6--6-6-----------|
E|-------------------------------------------------------------------------|
    Dont  want  to  was  no  more  time  , Times what we dont have


e|-------------------------------------------------------------------------|
B|-------------------------------------------------------------------------|
G|5-5-5-5-7-7-7-7-8-8-8-8-15-15-15-12-12-12--7--7--7-7-8--8--8-8-5--5--5--5|
D|5-5-5-5-7-7-7-7-8-8-8-8-15-15-15-12-12-12--7--7--7-7-8--8--8-8-5--5--5--5|
A|3-3-3-3-5-5-5-5-6-6-6-6-13-13-13-10-10-10--5--5--5-5-6--6--6-6-3--3--3--3|
E|-------------------------------------------------------------------------|
    Everywhere  I  look  someone  dies,     Wonder when its my turn? 

e|-------------------------------------------------------------------------|
B|-------------------------------------------------------------------------|
G|5--5--5-5-5-5------------------------------------------------------------|
D|5--5--5-5-5-5------------------------------------------------------------|
A|3--3--3-3-3-3------------------------------------------------------------|
E|-------------------------------------------------------------------------|


THE END - Hope it's not rubbish




| /  slide up
| \  slide down
| h  hammer-on
| p  pull-off
| ~  vibrato
| +  harmonic
| x  Mute note
===========================================================================

LYRICS


Come on baby do you 
Think it's good to feel 
Like I'm lying here, 
Swimming in memories? 

I fear God because everything dies, babe 
Got a gun in the back of my car . 
This spasm of good sense 
Is making my eyes twitch 
I've had enough of your consulations. 
I'm drowning, caught in a shit tide, 
Take my face to the inside of love. 
Nothing to eat but fears in the back seat. 
Well I met God, and he had nothing to say to me. 

I pray to god 
That you're right before my eyes, 
Bathed in white light, 
With halos in your eyes. 

Don't wanna waste no more time, 
Time's what we don't have. 
Everywhere I look, someone dies, 
Wonder when it's my turn. 

Hello, do you know me? 
Leave an open door. 
What you're looking for 
Baby when you come down, come down. 
I built a time machine to escape from 
All the pain in the back of my car. 
Living's a problem 'cause everything dies babe, 
Save yourself, we're not too far away. 

I pray to god 
That you're right before my eyes, 
Bathed in white light, 
With halos in your eyes. 

Don't wanna waste no more time, 
Time's what we don't have. 
Everywhere I look, someone dies, 
Wonder when it's my turn. 

I pray to god 
That you're right before my eyes, 
Bathed in white light, 
With halos in your eyes. 

Don't wanna waste no more time, 
Time's what we don't have. 
Everywhere I look someone dies, 
Wonder when it's my turn.

            
            
Suggest correction
Creating personal tab
Creating personal tab
You can edit any tab online and save it as your Personal.

You can edit, replace or remove any tab part or add personal notes – all changes will be seen only by you.

Personal tabs can be accessed anytime from any device, even offline.
Learn more »
comments
print report bad tab
6 comments total. Showing first comments.
+2 reply
kryptonite22 925 Jun 14, 2007 05:48 AM

finally a tab with the right tuning. its fairly obvious! this is pretty good but i think that the guitar parts are more complicated than that. the chords are right i think but theres one or two places where it sounds too simple.

0 reply
benjieboo 51 Jun 18, 2007 03:50 AM

Cheers mate, yeah i agree, the chords are right, but if you listen carefully there is a lot of mental stuff going on in the background, almost a seperate lead guitar line, even tho there are only 3 of them in the band, si neill is a bit of a genius. Glad someone else realises its in drop c. let me know if you work anything else out...

0 reply
anty 125 Jun 21, 2007 12:18 PM

D-------------------------------------|
A--------------------------3--5-------|
F--------7--9-----------5--------7-7--|
C--7--9--7--7--------3--3--3--3--7-7--|
G--7--7--7--7--------3--3--3--3--5-5--|
C--7--7--7--7--------3--3--3--3-------|

thats the backing guitar adding, strumming the extra strings in that progression

guest
You may want to rate the tab now too:
select rating
Wanna post a correction for this tab? Suggest correction