Oops, an error
Loading. Please wait.

Machines tab

version 2
version 2

Whole song

Interactive

42,099 views 1 this week
16 commentsread comments
1 2 3 4 5
x 32
add to favorites
×
Save as Personal and add changes to this tab that will be seen only by you. Learn more ›
×
You can save this tab as Personal to edit and correct it or add notes. All changes will be seen only by you. Learn more »
launch autoscroll
font size
0
reset
how to read this tab
guitar tuner
edit
Autoscroll
slow
fast
+/-
esc
set tempo
stop
Song: Machines
Artist: Biffy Clyro
Album: Puzzle

Tabbed by: garyhann
Email: garyhann@live.co.uk

Tuning: Standard

This song is beyond amazing. It is one of the best songs I’ve ever heard in my entire life!!!
It’s the album closer on their new album Puzzle which is also amazing. Listen to it for 
strumming ;) Correct me if I’ve make any f**k ups :P


  Intro
e|---------------------------------------------------------------------------|
B|---------------------------------------------------------------------------|
G|------------------------------------------5-----5-----5---5-----5-----5----|
D|--x--x----2-----2-----2---5-----5-----5---5-5-5-5-5-5-5-5-5-5-5-5-5-5-5-5--|
A|--x--x----2-2-2-2-2-2-2-0-5-5-5-5-5-5-5-5-3-3-3-3-3-3-3-3-3-3-3-3-3-3-3-3--|
E|--x--x----0-0-0-0-0-0-0---3-3-3-3-3-3-3-3----------------------------------|

e|-------------------------------------------------------------------|
B|-------------------------------------------------------------------|
G|--7-----7-----7-------------------5-----5-----5---5-----5-----5----|
D|--7-7-7-7-7-7-7-7-5-----5-----5---5-5-5-5-5-5-5-5-5-5-5-5-5-5-5-5--|
A|--5-5-5-5-5-5-5-5-5-5-5-5-5-5-5-5-3-3-3-3-3-3-3-3-3-3-3-3-3-3-3-3--|
E|------------------3-3-3-3-3-3-3-3----------------------------------|


  Verse
e|-------------------------------------------------------------------|
B|-------------------------------------------------------------------|
G|----------------------------------5--------------------------------|
D|--5-------------------------------5-5-5-5-5-5-5-5-5-5-5-5-5-5-5-5--|
A|--5-5-5-5-5-5-5-5-5-5-5-5-5-5-5-5-3-3-3-3-3-3-3-3-3-3-3-3-3-3-3-3--|
E|--3-3-3-3-3-3-3-3-3-3-3-3-3-3-3-3----------------------------------|

e|-------------------------------------------------------------------|
B|-------------------------------------------------------------------|
G|------------------7-7-7-7-7-7-7-7-5-----5-----5---5-----5-----5----|
D|--2-2-2-2-2-2-2-2-7-7-7-7-7-7-7-7-5-5-5-5-5-5-5-5-5-5-5-5-5-5-5-5--|
A|--2-2-2-2-2-2-2-2-5-5-5-5-5-5-5-5-3-3-3-3-3-3-3-3-3-3-3-3-3-3-3-3--|
E|--0-0-0-0-0-0-0-0--------------------------------------------------|


  Chorus
e|-------------------------------------------------------------------|
B|-------------------------------------------------------------------|
G|----------------------------------5-----5-----5---5-----5-----5----|
D|--2-----2-----2---5-----5-----5---5-5-5-5-5-5-5-5-5-5-5-5-5-5-5-5--|
A|--2-2-2-2-2-2-2-0-5-5-5-5-5-5-5-5-3-3-3-3-3-3-3-3-3-3-3-3-3-3-3-3--|
E|--0-0-0-0-0-0-0---3-3-3-3-3-3-3-3----------------------------------|

e|-------------------------------------------------------------------|
B|-------------------------------------------------------------------|
G|--7-----7-----7-------------------5-----5-----5---5-----5-----5----|
D|--7-7-7-7-7-7-7-7-5-----5-----5---5-5-5-5-5-5-5-5-5-5-5-5-5-5-5-5--|
A|--5-5-5-5-5-5-5-5-5-5-5-5-5-5-5-5-3-3-3-3-3-3-3-3-3-3-3-3-3-3-3-3--|
E|------------------3-3-3-3-3-3-3-3----------------------------------|


  Solo 1
e|----------------------------------------------------|
B|----------------------------------------------------|
G|----------------------------------------------------|
D|-----------------10-9-------------7~--5~---10-9-----|
A|--5-7/////10~---------7~------5-7---------------7~--|
E|----------------------------------------------------|


  1:49 & 3:22
e|------------------------------------------------------------|
B|------------------------------------------------------------|
G|--7--7--7-xx------------5--5--5-xx------------5~------------|
D|--7--7--7-xx-5--5--5-xx-5--5--5-xx-7--7--7-xx-5~----7~------|
A|--5--5--5-xx-5--5--5-xx-3--3--3-xx-7--7--7-xx-3~----7~------|
E|-------------3--3--3-xx------------5--5--5-xx-------5~------|


  Solo 2
e|----------------------------------------------------|
B|----------------------------------------------------|
G|----------------------------------------------------| x2
D|--9-9-7-7-9-9~--9-9-7-7-5-5~--10-10-9-9-------------|
A|----------------------------------------10-10-7-7~--|
E|----------------------------------------------------|


  End on
e|----------|
B|----------|
G|--5~------|
D|--5~------|
A|--3~------|
E|----------|

            
            
Suggest correction
Creating personal tab
Creating personal tab
You can edit any tab online and save it as your Personal.

You can edit, replace or remove any tab part or add personal notes – all changes will be seen only by you.

Personal tabs can be accessed anytime from any device, even offline.
Learn more »
comments
print report bad tab
16 comments total. Showing first comments.
+1 reply
tombelger 52 Jun 07, 2007 10:29 AM

Well done for tabbing this, please do more Biffy ones off Puzzle! Cos i cant be bothered to. If you know asexual meat kitchen (TUNE, should have been on album) look at my tab for that. ANd cheers for the comment on my Semi mental tab....

+1 reply
Pillarofsurfs!! 10 Jun 07, 2007 10:44 AM

Great tab! Yeah, you're not wrong about it like, lol, its deffo one of the greatest songs i've ever heard in my life. well done.

+1 reply
Jointy Hewit 10 Aug 01, 2007 05:03 PM

perfect :P

guest
You may want to rate the tab now too:
select rating
Wanna post a correction for this tab? Suggest correction