Oops, an error
Loading. Please wait.

Machines tab

version 4
version 4

Whole song

Interactive

5,212 views 1 this week
2 commentsread comments
1 2 3 4 5
1 last vote to show rating
add to favorites
×
Save as Personal and add changes to this tab that will be seen only by you. Learn more ›
×
You can save this tab as Personal to edit and correct it or add notes. All changes will be seen only by you. Learn more »
launch autoscroll
font size
0
reset
how to read this tab
guitar tuner
edit
Autoscroll
slow
fast
+/-
esc
set tempo
stop
  Hey everyone :). This is the Rock version of the awesome Machines by the great
Biff. It's not just a distorted version of the original, but it's almost an
entirly a new song with different riffs and lyrics and everything. 
  If you haven't got a clue what i'm talking about, then you can go to
recordstore.co.uk and download it. It's exclusive to that website and is digital
only, except i think it was included on the vinyll single for machines or somwthing. I dunno...

Tuning: Drop D (DAdGBe)

INTRO (Distortion)
e|--9-9--9-9--9-9--9-9-9-|
B|-10-9-10-9-10-9-101010-|
G|--9-9--9-9--9-9--9-9-9-|
d|-11-9-11-9-11-9-111111-|
A|-----------------------|
D|-----------------------|

VERSE (Light distortion/quite clean)
e|--9--9--9--9--9--9------9--9--9--9--9--9----|
B|-10-10-10-10-10-10------9--9--9--9--9--9----|
G|--9--9--9--9--9--9------9--9--9--9--9--9----|
d|-11-11-11-11-11-11-x2--11-11-11-11-11-11-x2-|
A|--------------------------------------------|
D|--------------------------------------------| x2

e|---------------4-4-4-4-4-4----9--9--9--9--9--9----|
B|-7-7-7-7-7-7---5-5-5-5-5-5---10-10-10-10-10-10----|
G|-7-7-7-7-7-7---4-4-4-4-4-4----9--9--9--9--9--9----|
d|-7-7-7-7-7-7---6-6-6-6-6-6---11-11-11-11-11-11-x2-|
A|--------------------------------------------------|
D|--------------------------------------------------| x2

CHORUS (Heavy distortion)
e|-----------------------------------------------------------------|
B|-----------------------------------------------------------------|
G|-----------------2-2-2-2-2-2-2-2-7-7-7-7-7-7-7-7-7-7-7-7-7-7-7-7-|
d|-4-4-4-4-4-4-4-4-2-2-2-2-2-2-2-2-7-7-7-7-7-7-7-7-7-7-7-7-7-7-7-7-|
A|-4-4-4-4-4-4-4-4-0-0-0-0-0-0-0-0-5-5-5-5-5-5-5-5-5-5-5-5-5-5-5-5-|
D|-4-4-4-4-4-4-4-4-------------------------------------------------|
  
e|-----------------------------------------------------------------|
B|-----------------------------------------------------------------|
G|-4-4-4-4-4-4-4-4-2-2-2-2-2-2-2-2-7-7-7-7-7-7-7-7-4-4-4-4-4-4-4-4-|
d|-4-4-4-4-4-4-4-4-2-2-2-2-2-2-2-2-7-7-7-7-7-7-7-7-4-4-4-4-4-4-4-4-|
A|-2-2-2-2-2-2-2-2-0-0-0-0-0-0-0-0-5-5-5-5-5-5-5-5-2-2-2-2-2-2-2-2-|
D|-----------------------------------------------------------------|

BRIDGE THINGY (Heavy distortion)
e|-------------------------------------------|
B|-------------------------------------------|
G|-----------------------------------6~-666~-|
d|-0~-00h4~-44s7~-77s2~~-0~-00h7~-77-7~-777~-|
A|-0~-00h4~-44s7~-77s2~~-0~-00h7~-77-4~-444~-|
D|-0~-00h4~-44s7~-77s2~~-0~-00h7~-77---------|              

INTERLUDEY THING (Distortion)
e|----------------------------------|
B|----------------------------------|
G|-111111111111111111111111111111/6-|
d|--xxxxxxxxxxxxxxxxxxxxxxxxxxxxx/x-|
A|--99999999999999999999999999999/4-|
D|----------------------------------|

ENDING VERSES (Heavy distortion)
e|-----------------------------------------------------------------|
B|-----------------------------------------------------------------|
G|-------------------------------------------------4-4-4-4-6-6-6-6-|
d|-4-4-4-4-4-4-4-4-4-4-4-4-4-4-4-4-3-3-3-3-3-3-3-3-4-4-4-4-6-6-6-6-|
A|-4-4-4-4-4-4-4-4-4-4-4-4-4-4-4-4-4-4-4-4-4-4-4-4-2-2-2-2-4-4-4-4-|
D|-4-4-4-4-4-4-4-4-4-4-4-4-4-4-4-4-3-3-3-3-3-3-3-3-----------------|

e|-----------------------------------------------------------------|
B|-----------------------------------------------------------------|
G|-7-7-7-7-7-7-7-7-7-7-7-7-7-7-7-7-4-4-4-4-4-4-4-4-4-4-4-4-4-4-4-4-|
d|-7-7-7-7-7-7-7-7-7-7-7-7-7-7-7-7-4-4-4-4-4-4-4-4-4-4-4-4-4-4-4-4-|
A|-5-5-5-5-5-5-5-5-5-5-5-5-5-5-5-5-2-2-2-2-2-2-2-2-2-2-2-2-2-2-2-2-|
D|-----------------------------------------------------------------|

Order:

INTRO             x4
VERSE             x2
CHORUS            x1
VERSE             x1
CHORUS            x2
BRIDGE THINGY     x4
INTERLUDEY THING  x1
ENDING VERSES     x2
BRIDGE THINGY    (End on 3rd chord change)

i tried my best. Its accurate enough :p

            
            
Suggest correction
Creating personal tab
Creating personal tab
You can edit any tab online and save it as your Personal.

You can edit, replace or remove any tab part or add personal notes – all changes will be seen only by you.

Personal tabs can be accessed anytime from any device, even offline.
Learn more »
Give kudos to tab author, rate the tab!
1 2 3 4 5
comments
print report bad tab
2 comments total.
+1 reply
CrowLord 51 Jun 20, 2008 07:46 AM

Where can I find this song?

0 reply
arranabbo155 139 Mar 20, 2010 08:36 AM

you got the name wrong its rock machiens but good tab and if you want this song add me on msn arran_abbiss@hotmail.co.uk

guest
You may want to rate the tab now too:
select rating
Wanna post a correction for this tab? Suggest correction