Oops, an error
Loading. Please wait.

Many Of Horror bass

version 2
version 2

Whole song

Interactive

7,893 views 3 this week
2 commentsread comments
1 2 3 4 5
2 more votes to show rating
add to favorites
×
Save as Personal and add changes to this tab that will be seen only by you. Learn more ›
×
You can save this tab as Personal to edit and correct it or add notes. All changes will be seen only by you. Learn more »
launch autoscroll
font size
0
reset
guitar tuner
backing track
0:00
0:00
edit
Autoscroll
slow
fast
+/-
esc
set tempo
stop
Author
Difficulty
I have just put this tab in standard tuning as for bass no need to follow the
guitar down half a step. I have removed some of the slides but this allows
for better and easier finger positions. 
I gig this this version, works well for me easier to add in your own groove to it enjoy,

:]


1st Verse, Come in at 0:26

|----------------------------------|
|---------------1------1-----------|
|-1-3/4-----------4/1----4---------|
|--------1-2/4-----------9/4-------|

Pre Chorus 

|----------------------------------|
|----------------------------------|
|-1-3/4------1---------------------|
|-------2--1---2--4----------------|

Chorus 

|----------------------------------|
|----------------------------------| 
|-4------1-------------------------|
|--(x8)---(x4)--2(x4)--------------|

2nd Verse 
|----------------------------------|
|---------------1--------1---------|  (x1)
|-----4------------4/1-----4-------|
|--------1-2/4---------------4-----|

|----------------------------------|   
|---------------1------1-----------|  (x1)
|-1-3/4-----------4/1----4---------|
|--------1-2/4-------------4-------|

Pre Chorus 

|----------------------------------|
|----------------------------------|
|-1-3/4------1---------------------|
|-------2--1---2--4----------------|

Chorus 

|----------------------------------|
|----------------------------------|
|-4------1-------------------------|
|--(x8)---(x4)--2(x4)--------------|

Bridge

|----------------------------------|
|----------------------------------|
|---1------------------------------|
|-4---2-4--------------------------|

|----------------------------------|
|-------------------1-------1------|  (x2)
|-1—-3/4---------------4/1---------|
|------------1-2/4-------------9/4-|

Pre Chorus 

|----------------------------------|
|----------------------------------|
|-1-3/4------1---------------------|
|-------2--1---2--4----------------|

Chorus 

|----------------------------------|
|----------------------------------|
|-4------1-------------------------|
|--(x8)---(x4)--2(x4)--------------|
Suggest correction
Creating personal tab
Creating personal tab
You can edit any tab online and save it as your Personal.

You can edit, replace or remove any tab part or add personal notes – all changes will be seen only by you.

Personal tabs can be accessed anytime from any device, even offline.
Learn more »
Give kudos to tab author, rate the tab!
1 2 3 4 5
comments
print report bad tab
2 comments total.
0 reply
252463 10 Jul 01, 2010 04:04 AM

Hey, on the chorus, do you repeat
|----------------------------------|
|----------------------------------|
|-4------1-------------------------|
|--(x8)---(x4)--2(x4)--------------|

the 4x8 and the 1x4? or is it 4 then open 8 times, I'm confused :S. Good tab otherwise :)

0 reply
Bassman stu 31 Jul 03, 2010 01:42 AM

Yes you repeat the chorus. I normally double it up in the second more energetic chorus so;

|-4------1--------------------------|
|--(x16)---(x8)--2(x8)--------------|

just to drive the song on a bit more.

No open stings if your playing with out fills :]

guest
You may want to rate the tab now too:
select rating
Wanna post a correction for this tab? Suggest correction