Oops, an error
Loading. Please wait.

Medicine tab

version 1
version 1

Whole song

9,934 views 66 this week
1 commentread comment
1 2 3 4 5
x 5
add to favorites
×
Save as Personal and add changes to this tab that will be seen only by you. Learn more ›
×
You can save this tab as Personal to edit and correct it or add notes. All changes will be seen only by you. Learn more »
launch autoscroll
font size
0
reset
how to read this tab
guitar tuner
edit
Autoscroll
slow
fast
+/-
esc
set tempo
stop
Biffy Clyro
Medicine
Tabbed by: Stuart
 
Tuning: Half step down (Eb Ab Db Gb Bb eb)


[Intro/1st verse]

Guitar 1 (Acoustic)
eb|-------------------------------------------------------------------------------------------------|
Bb|-----3--------------------------3-----------------3---3---3---3---3---3---3---3---3---3---3---3--| 
Gb|-----------2-----2--0--------0--0-----------------0---0---0---0---0---0---0---0---0---0---0---0--| x5
Db|-----------0--------------4-----2---------2---2---2---0---0---0h2-2---0---0---0h2-2---0---0---0--|
Ab|-----------0-----------2--------3---------3---3---3---3---3---3---3---3---3---3---3---3---3---3--|
Eb|--3----------------------------------------------------------------------------------------------|

Guitar 1 (strum)
     F             G             F             G
eb|--1-------------3-------------1-------------3------------------|
Bb|--1-------------3-------------1-------------3------------------|
Gb|--2-------------0-------------2-------------0------------------|
Db|--3-------------0-------------3-------------0------------------|
Ab|--3-------------2-------------3-------------2------------------|
Eb|--1-------------3-------------1-------------3------------------|


[Chorus]

     "But I shouldn't..."
Guitar 1 (strum)
     Cadd5         Fadd2         Amadd11       G
eb|--3-------------3-------------3-------------3------------------|
Bb|--1-------------1-------------1-------------3------------------|
Gb|--0-------------2-------------2-------------0------------------|
Db|--2-------------3-------------2-------------0------------------|
Ab|--3-------------x-------------0-------------2------------------|
Eb|--x-------------x-------------x-------------3------------------|

Guitar 2 (Clean electric)
eb|---------------------------------------------------------------|
Bb|---------8--------------8-------------8-------------8----------|
Gb|-----5-------5-------5------5------5------5------7------7------|
Db|------------------7-------------7-------------5----------------|
Ab|---------------------------------------------------------------|
Eb|---------------------------------------------------------------|

     "What was up's..."
Guitar 1 (strum)
     Cadd5         Fadd2         Amadd11       G
eb|--3-------------3-------------3-------------3------------------|
Bb|--1-------------1-------------1-------------3------------------|
Gb|--0-------------2-------------2-------------0------------------|
Db|--2-------------3-------------2-------------0------------------|
Ab|--3-------------x-------------0-------------2------------------|
Eb|--x-------------x-------------x-------------3------------------|

Guitar 2
eb|---------------------------------------------------------------|
Bb|---------8--------------8-------------8------------------------|
Gb|-----5-------5-------5------5------5------5------7-------------|
Db|------------------7-------------7-------------5----------------|
Ab|---------------------------------------------------------------|
Eb|---------------------------------------------------------------|


[Pre-Verse/Interlude]

Guitar 1 (Acoustic)
eb|--------------------------------------------------------------------------------------------------|
Bb|-----3--------------------------3-----------------3---3---3---3---3---3---3---3---3---3---3---3---|
Gb|-----------2-----2--0--------0--0-----------------0---0---0---0---0---0---0---0---0---0---0---0---|
Db|-----------0--------------4-----2---------2---2---2---0---0---0h2-2---0---0---0h2-2---0---0---0---|
Ab|-----------0-----------2--------3---------3---3---3---3---3---3---3---3---3---3---3---3---3---3---|
Eb|--3-----------------------------------------------------------------------------------------------|

Guitar 2 (Clean electric with delay)
eb|--------------------------------------------------------------------------------------------------|
Bb|--------12----10----------------------------------------------------------------------------------|
Gb|-----------------------11-------12----------------------------------------------------------------|
Db|--------------------------------------------------------------------------------------------------|
Ab|--------------------------------------------------------------------------------------------------|
Eb|--------------------------------------------------------------------------------------------------|

Guitar 1
eb|--------------------------------------------------------------------------------------------------|
Bb|-----3--------------------------3-----------------3---3---3---3---3---3---3---3---3---3---3---3---|
Gb|-----------2-----2--0--------0--0-----------------0---0---0---0---0---0---0---0---0---0---0---0---|
Db|-----------0--------------4-----2---------2---2---2---0---0---0h2-2---0---0---0h2-2---0---0---0---|
Ab|-----------0-----------2--------3---------3---3---3---3---3---3---3---3---3---3---3---3---3---3---|
Eb|--3-----------------------------------------------------------------------------------------------|

Guitar 2
eb|-----------------------10-------------------------------------------------------------------------|
Bb|--------12----10----------------------------------------------------------------------------------|
Gb|--------------------------------12----------------------------9-----------------------------------|
Db|--------------------------------------------------12------------------12--------------------------|
Ab|--------------------------------------------------------------------------------------------------|
Eb|--------------------------------------------------------------------------------------------------|


[Verse]

"I don't wanna talk about it unlike you"
Guitar 1
eb|--------------------------------------------------------------------------------------------------|
Bb|-----3--------------------------3-----------------3---3---3---3---3---3---3---3---3---3---3---3---|
Gb|-----------2-----2--0--------0--0-----------------0---0---0---0---0---0---0---0---0---0---0---0---|
Db|-----------0--------------4-----2---------2---2---2---0---0---0h2-2---0---0---0h2-2---0---0---0---|
Ab|-----------0-----------2--------3---------3---3---3---3---3---3---3---3---3---3---3---3---3---3---|
Eb|--3-----------------------------------------------------------------------------------------------|

Guitar 2
eb|--------------------------------------------------------------------------------------------------|
Bb|--------12----10----------------------------------------------------------------------------------|
Gb|-----------------------11-------12----------------------------------------------------------------|
Db|--------------------------------------------------------------------------------------------------|
Ab|--------------------------------------------------------------------------------------------------|
Eb|--------------------------------------------------------------------------------------------------|

"Your victim hid your character, it defines you"
Guitar 1
eb|--------------------------------------------------------------------------------------------------|
Bb|-----3--------------------------3-----------------3---3---3---3---3---3---3---3---3---3---3---3---|
Gb|-----------2-----2--0--------0--0-----------------0---0---0---0---0---0---0---0---0---0---0---0---|
Db|-----------0--------------4-----2---------2---2---2---0---0---0h2-2---0---0---0h2-2---0---0---0---|
Ab|-----------0-----------2--------3---------3---3---3---3---3---3---3---3---3---3---3---3---3---3---|
Eb|--3-----------------------------------------------------------------------------------------------|

Guitar 2
eb|-----------------------10-------------------------------------------------------------------------|
Bb|--------12----10----------------------------------------------------------------------------------|
Gb|--------------------------------12----------------------------------------------------------------|
Db|--------------------------------------------------------------------------------------------------|
Ab|--------------------------------------------------------------------------------------------------|
Eb|--------------------------------------------------------------------------------------------------|

"And then you rearrange it, caress it into view"
Guitar 1
eb|--------------------------------------------------------------------------------------------------|
Bb|-----3--------------------------3-----------------3---3---3---3---3---3---3---3---3---3---3---3---|
Gb|-----------2-----2--0--------0--0-----------------0---0---0---0---0---0---0---0---0---0---0---0---|
Db|-----------0--------------4-----2---------2---2---2---0---0---0h2-2---0---0---0h2-2---0---0---0---|
Ab|-----------0-----------2--------3---------3---3---3---3---3---3---3---3---3---3---3---3---3---3---|
Eb|--3-----------------------------------------------------------------------------------------------|

Guitar 2
eb|--------------------------------------------------------------------------------------------------|
Bb|--------12----10----------------------------------------------------------------------------------|
Gb|-----------------------11-------12----------------------------------------------------------------|
Db|--------------------------------------------------------------------------------------------------|
Ab|--------------------------------------------------------------------------------------------------|
Eb|--------------------------------------------------------------------------------------------------|

    "You invent your problems,   and then you sell them"
Guitar 1 (strum)
     F             G             F             G
eb|--1-------------3-------------1-------------3------------------|
Bb|--1-------------3-------------1-------------3------------------|
Gb|--2-------------0-------------2-------------0------------------|
Db|--3-------------0-------------3-------------0------------------|
Ab|--3-------------2-------------3-------------2------------------|
Eb|--1-------------3-------------1-------------3------------------|

Guitar 2
eb|---------------------------------------------------------------|
Bb|--10------------12------------10------------12-----------------|
Gb|---------------------------------------------------------------|
Db|---------------------------------------------------------------|
Ab|---------------------------------------------------------------|
Eb|---------------------------------------------------------------|


[Pre-Chorus]

     "So help me..."                   "Tell me..."
Guitar 1 (strum)
     Amadd11 G       Cadd5   Fadd2        Amadd11 G       Cadd5   Fadd2
eb|--3-------3-------3-------3------------3-------3-------3-------3-------------|
Bb|--1-------3-------1-------1------------1-------3-------1-------1-------------|
Gb|--2-------0-------0-------2------------2-------0-------0-------2-------------|
Db|--2-------0-------2-------3------------2-------0-------2-------3-------------|
Ab|--0-------2-------3-------x------------0-------2-------3-------x-------------|
Eb|--x-------3-------x-------x------------x-------3-------x-------x-------------|

Guitar 2
eb|-----------------------------------------------------------------------------|
Bb|----------10---------------------------13------12--------------10------------|
Gb|--12--------------12-----------------------------------12--------------------|
Db|-----------------------------------------------------------------------------|
Ab|-----------------------------------------------------------------------------|
Eb|-----------------------------------------------------------------------------|

     "When is high..."                   "It's all..."
Guitar 1 (strum)
     Amadd11 G       Cadd5   Fadd2        Bm              Fadd2
eb|--3-------3-------3-------3------------2---------------3---------------------|
Bb|--1-------3-------1-------1------------3---------------1---------------------|
Gb|--2-------0-------0-------2------------4---------------2---------------------|
Db|--2-------0-------2-------3------------4---------------3---------------------|
Ab|--0-------2-------3-------x------------2---------------x---------------------|
Eb|--x-------3-------x-------x------------x---------------x---------------------|

Guitar 2
eb|-----------------------------------------------------------------------------|
Bb|--13------12--------------10-------------------------------------------------|
Gb|------------------12-------------------9---------------10--------------------|
Db|-----------------------------------------------------------------------------|
Ab|-----------------------------------------------------------------------------|
Eb|-----------------------------------------------------------------------------|


[Chorus]

     "But I shouldn't..."
Guitar 1 (strum)
     Cadd5         Fadd2         Amadd11       G
eb|--3-------------3-------------3-------------3------------------|
Bb|--1-------------1-------------1-------------3------------------|
Gb|--0-------------2-------------2-------------0------------------|
Db|--2-------------3-------------2-------------0------------------|
Ab|--3-------------x-------------0-------------2------------------|
Eb|--x-------------x-------------x-------------3------------------|

Guitar 2 (Clean electric)
eb|---------------------------------------------------------------|
Bb|---------8--------------8-------------8-------------8----------|
Gb|-----5-------5-------5------5------5------5------7------7------|
Db|------------------7-------------7-------------5----------------|
Ab|---------------------------------------------------------------|
Eb|---------------------------------------------------------------|

     "What was up's..."
Guitar 1 (strum)
     Cadd5         Fadd2         Amadd11       G
eb|--3-------------3-------------3-------------3------------------|
Bb|--1-------------1-------------1-------------3------------------|
Gb|--0-------------2-------------2-------------0------------------|
Db|--2-------------3-------------2-------------0------------------|
Ab|--3-------------x-------------0-------------2------------------|
Eb|--x-------------x-------------x-------------3------------------|

Guitar 2
eb|---------------------------------------------------------------|
Bb|---------8--------------8-------------8------------------------|
Gb|-----5-------5-------5------5------5------5------7-------------|
Db|------------------7-------------7-------------5----------------|
Ab|---------------------------------------------------------------|
Eb|---------------------------------------------------------------|


[Bridge]

     "So swallow..."            "We belong..."
Guitar 1 (no strumming)                                           (strum)
     Fadd2        Cadd5  G      Fadd2        Amadd11              G
eb|--3------------3------3------3------------3-3-3-3-3-3-3-3------3------|
Bb|--1------------1------3------1------------1-0-1-0-1-0-1-0------3------|
Gb|--2------------0------0------2------------2-2-2-2-2-2-2-2------0------|
Db|--3------------2------0------3------------2-2-2-2-2-2-2-2------0------|
Ab|--x------------3------2------x------------0-0-0-0-0-0-0-0------2------|
Eb|--x------------x------3------x------------x-x-x-x-x-x-x-x------3------|

     "So swallow..."            "We belong..."
Guitar 1
     Fadd2        Cadd5  G      Fadd2        Amadd11              G
eb|--3------------3------3------3------------3-3-3-3-3-3-3-3------3------|
Bb|--1------------1------3------1------------1-0-1-0-1-0-1-0------3------|
Gb|--2------------0------0------2------------2-2-2-2-2-2-2-2------0------|
Db|--3------------2------0------3------------2-2-2-2-2-2-2-2------0------|
Ab|--x------------3------2------x------------0-0-0-0-0-0-0-0------2------|
Eb|--x------------x------3------x------------x-x-x-x-x-x-x-x------3------|

     "If she asks..."           "We'll never..."
Guitar 1
     Fadd2        Cadd5  G      Fadd2        Amadd11              G
eb|--3------------3------3------3------------3-3-3-3-3-3-3-3------3------|
Bb|--1------------1------3------1------------1-0-1-0-1-0-1-0------3------|
Gb|--2------------0------0------2------------2-2-2-2-2-2-2-2------0------|
Db|--3------------2------0------3------------2-2-2-2-2-2-2-2------0------|
Ab|--x------------3------2------x------------0-0-0-0-0-0-0-0------2------|
Eb|--x------------x------3------x------------x-x-x-x-x-x-x-x------3------|


[Chorus]

     "But I shouldn't..."
Guitar 1 (strum)
     Cadd5         Fadd2         Amadd11       G
eb|--3-------------3-------------3-------------3------------------|
Bb|--1-------------1-------------1-------------3------------------|
Gb|--0-------------2-------------2-------------0------------------|
Db|--2-------------3-------------2-------------0------------------|
Ab|--3-------------x-------------0-------------2------------------|
Eb|--x-------------x-------------x-------------3------------------|

Guitar 2
eb|---------------------------------------------------------------|
Bb|---------8--------------8-------------8-------------8----------|
Gb|-----5-------5-------5------5------5------5------7------7------|
Db|------------------7-------------7-------------5----------------|
Ab|---------------------------------------------------------------|
Eb|---------------------------------------------------------------|

     "What was up's..."
Guitar 1 (strum)
     Cadd5         Fadd2         Amadd11       G
eb|--3-------------3-------------3-------------3------------------|
Bb|--1-------------1-------------1-------------3------------------|
Gb|--0-------------2-------------2-------------0------------------|
Db|--2-------------3-------------2-------------0------------------|
Ab|--3-------------x-------------0-------------2------------------|
Eb|--x-------------x-------------x-------------3------------------|

Guitar 2
eb|---------------------------------------------------------------|
Bb|---------8--------------8-------------8------------------------|
Gb|-----5-------5-------5------5------5------5------7-------------|
Db|------------------7-------------7-------------5----------------|
Ab|---------------------------------------------------------------|
Eb|---------------------------------------------------------------|


[Outro]

Guitar 1
eb|--------------------------------------------------------------------------------------------------|
Bb|-----3--------------------------3-----------------3---3---3---3---3---3---3---3---3---3---3---3---| 
Gb|-----------2-----2--0--------0--0-----------------0---0---0---0---0---0---0---0---0---0---0---0---| 
Db|-----------0--------------4-----2---------2---2---2---0---0---0h2-2---0---0---0h2-2---0---0---0---|
Ab|-----------0-----------2--------3---------3---3---3---3---3---3---3---3---3---3---3---3---3---3---|
Eb|--3-----------------------------------------------------------------------------------------------|

     "I was done talking..."
Guitar 1
eb|------------------------------------------|
Bb|-----3--------------------------3---------| 
Gb|-----------2-----2--0--------0--0---------| 
Db|-----------0--------------4-----2---------|
Ab|-----------0-----------2--------3---------|
Eb|--3---------------------------------------|



************************************

| x  Dead note
| h  Hammer-on
| b  Bend

************************************

            
            
Suggest correction
Creating personal tab
Creating personal tab
You can edit any tab online and save it as your Personal.

You can edit, replace or remove any tab part or add personal notes – all changes will be seen only by you.

Personal tabs can be accessed anytime from any device, even offline.
Learn more »
comments
print report bad tab
1 comment total.
0 reply
dalyemmett 10 May 04, 2016 09:08 AM

Well, that was quick! Bravo, looks correct

guest
You may want to rate the tab now too:
select rating
Wanna post a correction for this tab? Suggest correction