Oops, an error
Loading. Please wait.

Mountains Bass Tab

version 1
version 1

Whole song

Interactive

19,706 views 39 this week
no commentswrite comment
1 2 3 4 5
excellent!
x 6
add to favorites
launch autoscroll
font size
0
reset
guitar tuner
Tab Pro tools
  • play this tab
  • loop segment
  • change instrument
  • show fretboard
  • metronome
×
Best way to learn
"Mountains"
Autoscroll
slow
fast
+/-
esc
set tempo
stop
Contributor
Difficulty
Tuning
novice
C# G# C# F# A# D#
Biffy Clyro - Mountains (bass)

Its drop D and a half step down. i.e C#,G#,C#,F#
This is just me trying to work it out so it aint perfect. ENJOY

mutatedhamster@hotmail.com
Hamish Reilly
www.myspace.com/surrealcity

VERSE
G-------------------------------------|
D-------------------------------------|
A-------------------------------5-5---|
D-9-9-9-9-9-9-0-0-0-5-5-5-5-5-5-----0-|

G-------------------------------------|
D-------------------------------------|
A-------------------------------5-5-5-|
D-9-9-9-9-9-9-0-0-0-5-5-5-5-5-5-------|

PRE-CHORUS
G----------------------------------------------|
D----------------------------------------------|
A----------------5-5-5-5---------------5-5-5-5-|
D-7-7-7-7-7-7-7----------9-9-9-9-9-9-9---------|


G--------------------------------------------|
D--------------------------------------------|
A----------------5-5-5-5---------------4-4-4-|
D-7-7-7-7-7-7-7----------9-9-9-9-9-9-9-------|

CHORUS
G-----------------------------|
D-----------------------------|
A---5---5-5-5-5-5-5-5-5-4-4-4-|
D-0----0----------------------|

G------------------------------|
D------------------------------|
A---5----5-5-5-5-5-5-5-5-4-4-4-|
D-0----0-----------------------|

G--------------------------------|
D--------------------------------|
A-2--2-2-2-2-2-2-2-2-2-2-2-4-4-4-|
D--------------------------------|

G------------------------------|
D------------------------------|
A---5----5-5-5-5-5-5-5-5-4-4-4-|
D-0----0-----------------------|

G------------------------------|
D------------------------------|
A---5----5-5-5-5-5-5-5-5-4-4-4-|
D-0----0-----------------------|

G--------------------------------|
D--------------------------------|
A-2--2-2-2-2-2-2-2-2-2-2-2-2-2---|
D------------------------------0-|

AFTER-CHORUS
G-----------------------------------------------------------------|
D--------------------------------- -------------------------------|
A---------------------------------10-10-10-10-10-10-10-10-5-5-5-5-|
D-7-7-7-7-7-7-7-7-9-9-9-9-9-9-9-9---------------------------------|

G-------------------------------------------------------------------------|
D--------------------------------- ---------------------------------------|
A---------------------------------10-10-10-10-10-10-10-10-----------------|
D-7-7-7-7-7-7-7-7-9-9-9-9-9-9-9-9-------------------------0-0-0-0-0-0-0-0-|

G---------------------------------------------------------------------------------|
D--------------------------------- -----------------------------------------------|
A-12-12-12-12-12-12-12-12-14-14-14-14-14-14-14-14-10-10-10-10-10-10-10-10-5-5-5-5-|
D---------------------------------------------------------------------------------|

G-----------------------------------------------------------------------------------------|
D--------------------------------- -------------------------------------------------------|
A-12-12-12-12-12-12-12-12-14-14-14-14-14-14-14-14-10-10-10-10-10-10-10-10-----------------|
D-------------------------------------------------------------------------0-0-0-0-0-0-0-0-|

VERSE
PRE-CHORUS

CHORUS (slight variation)
G-----------------------------|
D-----------------------------|
A---5---5-5-5-5-5-5-5-5-4-4-4-|
D-0----0----------------------|

G------------------------------|
D------------------------------|
A---5----5-5-5-5-5-5-5-5-4-4-4-|
D-0----0-----------------------|

G--------------------------------|
D--------------------------------|
A-2--2-2-2-2-2-2-2-2-2-2-2-4-4-4-|
D--------------------------------|

G------------------------------|
D------------------------------|
A---5----5-5-5-5-5-5-5-5-4-4-4-|
D-0----0-----------------------|

G------------------------------|
D------------------------------|
A---5----5-5-5-5-5-5-5-5-5-5-5-|
D-0----0-----------------------|

AFTER-CHORUS (slight variation)
G---------------------------------------------------------------|
D--------------------------------- -----------------------------|
A---------------------------------10-10-10-10-10-10-10-10-5-5-5-|
D-7-7-7-7-7-7-7-7-9-9-9-9-9-9-9-9-------------------------------|

G-------------------------------------------------------------------------|
D-------------------------------------------------------------------------|
A---------------------------------10-10-10-10-10-10-10-10-----------------|
D-7-7-7-7-7-7-7-7-9-9-9-9-9-9-9-9-------------------------0-0-0-0-0-0-0-0-|

G-------------------------------------------------------------------------------|
D--------------------------------- ---------------------------------------------|
A-12-12-12-12-12-12-12-12-14-14-14-14-14-14-14-14-10-10-10-10-10-10-10-10-5-5-5-|
D-------------------------------------------------------------------------------|

G-------------------------------------------------------------------------------------------|
D--------------------------------- ---------------------------------------------------------|
A-12-12-12-12-12-12-12-12-14-14-14-14-14-14-14-14-10-10-10-10-10-10-10-10-5-5-----5-5-----5-|
D-----------------------------------------------------------------------------0-0-----0-0---|

MIDDLE 8
G-----------------------------------------------------------------|
D-----------------------------------------------------------------|
A-----------------------------------------------------------------|
D-9-9-9-9-7-7-7-7-0-0-0-0-0-0-0-0-9-9-9-9-7-7-7-7-5-5-5-5-5-5-5-5-|

G-----------------------------------------------------------------|
D-----------------------------------------------------------------|
A-----------------------------------------------------------------|
D-9-9-9-9-7-7-7-7-0-0-0-0-0-0-0-0-2-2-2-2-2-2-2-2-5-5-5-5-5-5-5-5-|

OUTRO-CHORUS (kinda)
G-----------------------------------------------------------------|
D-----------------------------------------------------------------|
A-----------------------------------------------------------------|
D-9-9-9-9-7-7-7-7-0-0-0-0-0-0-0-0-5-5-5-5-5-5-5-5-0-0-0-0-0-0-0-0-|

G-----------------------------------------------------------------|
D-----------------------------------------------------------------|
A-----------------------------------------------------------------|
D-7-7-7-7-7-7-7-7-0-0-0-0-0-0-0-0-5-5-5-5-5-5-5-5-2-2-2-2-2-2-2-2-|

G-----------------------------------------------------------------|
D-----------------------------------------------------------------|
A-----------------------------------------------------------------|
D-9-9-9-9-7-7-7-7-0-0-0-0-0-0-0-0-5-5-5-5-5-5-5-5-0-0-0-0-0-0-0-0-|

G-----------------------------------------------------------------|
D-----------------------------------------------------------------|
A---------------------------------------------------------4-4-4---|
D-7-7-7-7-7-7-7-7-0-0-0-0-0-0-0-0-5-5-5-5-5-5-5-5-5-5-5-5---------|

ACTUAL OUTRO CHORUS
G-----------------------------|
D-----------------------------|
A---5---5-5-5-5-5-5-5-5-4-4-4-|
D-0----0----------------------|

G------------------------------|
D------------------------------|
A---5----5-5-5-5-5-5-5-5-4-4-4-|
D-0----0-----------------------|

G--------------------------------|
D--------------------------------|
A-2--2-2-2-2-2-2-2-2-2-2-2-2-2-2-|
D--------------------------------|

G-----------------------------------------------------|
D-----------------------------------------------------|
A-----------------------------------------------------|
D-0-0-0-0-0-0-0-0-0-0-0-0-0-0-0-0-----0-0-0-0-0-0-0-0-|

BANG!
comments
print report bad tab
I want to post or [tab]
guest
You may want to rate the tab now too:
select rating
Please do not post tabs as comments. Select "correction" instead!