Oops, an error
Loading. Please wait.
We have an official Mountains tab made by UG professional guitarists. Check out the tab »
×

Mountains tab

version 4
version 4

Whole song

  • Best Chord Voicings and pretty much what Simon plays live.
  • Live acoustic version from In:Demand Scotland.
2,122 views 36 this week
no commentswrite comment
1 2 3 4 5
x 3
add to favorites
×
Save as Personal and add changes to this tab that will be seen only by you. Learn more ›
×
You can save this tab as Personal to edit and correct it or add notes. All changes will be seen only by you. Learn more »
launch autoscroll
font size
0
reset
how to read this tab
guitar tuner
backing track
0:00
0:00
edit
Autoscroll
slow
fast
+/-
esc
set tempo
stop
About this tab version
Best Chord Voicings and pretty much what Simon plays live. Was this info helpful? Yes No
Biffy Clyro – Mountains

Album: Only Revolutions
Tuning: Drop C#/Db

(/) Slide Up  (\) Slide Down  (h) Hammer On  (p) Pull Off  (b) Bend (r) Release (v) Vibrato


[Intro]

Eb|-2-2-----2-2-----2---2-----------2-2---------|
Bb|-3---3---3---3---3-3-3-3-3-------3---3-----3-|
Gb|-4-----4-4-----4-4-4---4-0-------4-----4---0-|
Db|-4-------4-------4-------0-------4-------0-0-|
Ab|-2-------2-------2---------------2-----------|
Db|-------------------------5-----------------5-|


[Verse]

Eb|-------------------------------------|
Bb|-------------------------------------|
Gb|-4-4-4-4-4-4-4-4-4-7-7-7-7-7-7-7-7---|
Db|-0-0-0-0-0-0-0-0-0-0-0-0-0-0-0-7-7---|      x2
Ab|-2-2-2-2-2-2-------------------5-5-0-|
Db|-------------2-2-0-5-5-5-5-5-5-------|

Eb|-------------------------------------|
Bb|-----------------3-3-3-3-3-3-3-------|
Gb|-2-2-2-2-2-2-2-2---------------------|
Db|-2-2-2-2-2-2-----4-4-4-4-4-4-4-7-7-7-|
Ab|-0-0-0-0-0-0-5-5-2-2-2-2-2-2-2/5-5-5-|
Db|-------------------------------------|

Eb|-----------------------------|
Bb|-----------------3-3-3-3-3-3-|
Gb|-2-2-2-2-2-2-2-2-------------|
Db|-2-2-2-2-2-2-----4-4-4-4-4-4-|
Ab|-0-0-0-0-0-0-5-5-2-2-2-2-2-2-|
Db|-----------------------------|


[Chorus]

Eb|--------------------------------------------------------------------|
Bb|-3-3-3--------------------------------------------------------------|
Gb|---------------------------------14-14-14---------------------------|
Db|-4-4-4-0---------7-7-7-7-7-7-7-7-11-11-11-0---------7-7-7-7-7-7-7-7-|
Ab|-4-4-4-0---------5-5-5-5-5-5-5-5-12-12-12-0---------5-5-5-5-5-5-5-5-|
Db|-------0----12\0-0-0-0-0-0-0-0-0-11-11-11-0----12\0-0-0-0-0-0-0-0-0-|

Eb|-------------------------------------------------------------------|
Bb|-------------------------------------------------------------------|
Gb|-14-14-----------------14-14-14---------------------------14-14-14-|
Db|-11-11---9-9-9-9-9-9-9-11-11-11-0---------7-7-7-7-7-7-7-7-11-11-11-|
Ab|-12-12-0-9-9-9-9-9-9-9-12-12-12-0---------5-5-5-5-5-5-5-5-12-12-12-|
Db|-11-11-0-9-9-9-9-9-9-9-11-11-11-0----12\0-0-0-0-0-0-0-0-0-11-11-11-|

Eb|---------------------------------------------------|
Bb|---------------------------------------------------|
Gb|---------------------------14-14-------------------|
Db|-0---------7-7-7-7-7-7-7-7-11-11---9-9-9-9-9-9-9-9-|
Ab|-0---------5-5-5-5-5-5-5-5-12-12-0-9-9-9-9-9-9-9-9-|
Db|-0----12\0-0-0-0-0-0-0-0-0-11-11-0-9-9-9-9-9-9-9-9-|


[Interlude]

Eb|-------------------------------------------------|
Bb|-------------------------------------------------|
Gb|-14-14-14-14-14-14-14-14-14-14-14-14-14-14-14-14-|
Db|-11-11-11-11-11-11-11-11-12-12-12-12-12-12-12-12-|
Ab|-12-12-12-12-12-12-12-12-14-14-14-14-14-14-14-14-|
Db|-------------------------------------------------|

Eb|-------------------------------------|
Bb|-------------------------------------|
Gb|-14-14-14-14-14-14-14-14-14-14-14-14-|
Db|-12-12-12-12-12-12-12-12-12-12-12-12-|
Ab|-10-10-10-10-10-10-10-10-12-12-12-12-|
Db|-------------------------12-12-12-12-|
             X2
Eb|-------------------------------------------------|
Bb|-------------------------------------------------|
Gb|-14-14-14-14-14-14-14-14-14-14-14-14-14-14-14-14-|
Db|-11-11-11-11-11-11-11-11-12-12-12-12-12-12-12-12-|
Ab|-12-12-12-12-12-12-12-12-14-14-14-14-14-14-14-14-|
Db|-------------------------------------------------|

Eb|-------------------------------------------------|
Bb|-------------------------------------------------|
Gb|-14-14-14-14-14-14-14-14-14-14-14-14-14-14-14-14-|
Db|-12-12-12-12-12-12-12-12-12-12-12-12-0--0--0--0--|
Ab|-10-10-10-10-10-10-10-10-12-12-12-12-0--0--0--0--|
Db|-------------------------12-12-12-12-0--0--0--0--|


[Verse]

Eb|-------------------------------------|
Bb|-------------------------------------|
Gb|-4-4-4-4-4-4-4-4-4-7-7-7-7-7-7-7-7---|
Db|-0-0-0-0-0-0-0-0-0-0-0-0-0-0-0-7-7---|     x2
Ab|-2-2-2-2-2-2-------------------5-5-0-|
Db|-------------2-2-0-5-5-5-5-5-5-------|

Eb|-------------------------------------|
Bb|-----------------3-3-3-3-3-3-3-------|
Gb|-2-2-2-2-2-2-2-2---------------------|
Db|-2-2-2-2-2-2-----4-4-4-4-4-4-4-7-7-7-|
Ab|-0-0-0-0-0-0-5-5-2-2-2-2-2-2-2/5-5-5-|
Db|-------------------------------------|

Eb|-----------------------------|
Bb|-----------------3-3-3-3-3-3-|
Gb|-2-2-2-2-2-2-2-2-------------|
Db|-2-2-2-2-2-2-----4-4-4-4-4-4-|
Ab|-0-0-0-0-0-0-5-5-2-2-2-2-2-2-|
Db|-----------------------------|

Verse (Extra):

Eb|-----------------------------|
Bb|-3---------------------------|
Gb|-4-x12-----------------------|
Db|-4-------2-2---5-------7-7---|      x2
Ab|-2-------2-2-0-5—x12---5-5-0-|
Db|---------2-2-0-5-------------|

Eb|---------------------------|
Bb|-------------3-------------|
Gb|-2-x12---2-2-4-x12---------|
Db|-2-----------4-------7-7-7-|
Ab|-0-------5-5-2-------5-5-5-|
Db|---------------------------|

Eb|---------------------------|
Bb|-------------3-------------|
Gb|-2-x12---2-2-4-x12---------|
Db|-2-----------4-------------|
Ab|-0-------5-5-2-------------|
Db|---------------------------|


[Chorus]

Eb|--------------------------------------------------------------------|
Bb|-3-3-3--------------------------------------------------------------|
Gb|---------------------------------14-14-14---------------------------|
Db|-4-4-4-0---------7-7-7-7-7-7-7-7-11-11-11-0---------7-7-7-7-7-7-7-7-|
Ab|-4-4-4-0---------5-5-5-5-5-5-5-5-12-12-12-0---------5-5-5-5-5-5-5-5-|
Db|-------0----12\0-0-0-0-0-0-0-0-0-11-11-11-0----12\0-0-0-0-0-0-0-0-0-|

Eb|-------------------------------------------------------------------|
Bb|-------------------------------------------------------------------|
Gb|-14-14-----------------14-14-14---------------------------14-14-14-|
Db|-11-11---9-9-9-9-9-9-9-11-11-11-0---------7-7-7-7-7-7-7-7-11-11-11-|
Ab|-12-12-0-9-9-9-9-9-9-9-12-12-12-0---------5-5-5-5-5-5-5-5-12-12-12-|
Db|-11-11-0-9-9-9-9-9-9-9-11-11-11-0----12\0-0-0-0-0-0-0-0-0-11-11-11-|

Eb|-----------------------------------|
Bb|-----------------------------------|
Gb|-----------------------------------|
Db|-0---------7-7-7-7-7-7-7-7-7-7-7-7-|
Ab|-0---------5-5-5-5-5-5-5-5-5-5-5-5-|
Db|-0----12\0-0-0-0-0-0-0-0-0-0-0-0-0-|


[Interlude]

Eb|-------------------------------------------------|
Bb|-------------------------------------------------|
Gb|-14-14-14-14-14-14-14-14-14-14-14-14-14-14-14-14-|
Db|-11-11-11-11-11-11-11-11-12-12-12-12-12-12-12-12-|
Ab|-12-12-12-12-12-12-12-12-14-14-14-14-14-14-14-14-|
Db|-------------------------------------------------|

Eb|-------------------------------------|
Bb|-------------------------------------|
Gb|-14-14-14-14-14-14-14-14-14-14-14-14-|
Db|-12-12-12-12-12-12-12-12-12-12-12-12-|
Ab|-10-10-10-10-10-10-10-10-12-12-12-12-|
Db|-------------------------12-12-12-12-|

Eb|-------------------------------------------------|
Bb|-------------------------------------------------|
Gb|-14-14-14-14-14-14-14-14-14-14-14-14-14-14-14-14-|
Db|-11-11-11-11-11-11-11-11-12-12-12-12-12-12-12-12-|
Ab|-12-12-12-12-12-12-12-12-14-14-14-14-14-14-14-14-|
Db|-------------------------------------------------|

Eb|-------------------------------------------------|
Bb|-------------------------------------------------|
Gb|-14-14-14-14-14-14-14-14-14-14-14-14-14-14-14-14-|
Db|-12-12-12-12-12-12-12-12-12-12-12-12-0--0--0--0--|
Ab|-10-10-10-10-10-10-10-10-12-12-12-12-0--0--0--0--|
Db|-------------------------12-12-12-12-0--0--0--0--|

Eb|-------------------------------------------------|
Bb|-------------------------------------------------|
Gb|-14-14-14-14-14-14-14-14-14-14-14-14-14-14-14-14-|
Db|-11-11-11-11-11-11-11-11-12-12-12-12-12-12-12-12-|
Ab|-12-12-12-12-12-12-12-12-14-14-14-14-14-14-14-14-|
Db|-------------------------------------------------|

Eb|-------------------------------------|
Bb|-------------------------------------|
Gb|-14-14-14-14-14-14-14-14-14-14-14-14-|
Db|-12-12-12-12-12-12-12-12-12-12-12-12-|
Ab|-10-10-10-10-10-10-10-10-12-12-12-12-|
Db|-------------------------12-12-12-12-|

Eb|-------------------------------------------------|
Bb|-------------------------------------------------|
Gb|-14-14-14-14-14-14-14-14-14-14-14-14-14-14-14-14-|
Db|-11-11-11-11-11-11-11-11-12-12-12-12-12-12-12-12-|
Ab|-12-12-12-12-12-12-12-12-14-14-14-14-14-14-14-14-|
Db|-------------------------------------------------|

Eb|-------------------------------------------------|
Bb|-------------------------------------------------|
Gb|-14-14-14-14-14-14-14-14-14-14-14-14-14-14-14-14-|
Db|-12-12-12-12-12-12-12-12-12-12-0--0--12-12-0--0--|
Ab|-10-10-10-10-10-10-10-10-12-12-0--0--12-12-0--0--|
Db|-------------------------12-12-0--0--12-12-0--0—-|

Interlude Extra:

Eb|-------------------------------------------------|
Bb|-15-14-12----12----12-14-15-14-12----12----12-14-|
Gb|----------14----14----------------14----14-------|
Db|-------------------------------------------------|         x10
Ab|-------------------------------------------------|
Db|-------------------------------------------------|

Bridge Guitar 1:

Eb|-------------------------------------------------------------------------|
Bb|-------------------------------------------------------------------------|
Gb|-4-4-4-4-6-6-6-7-7-7-7-7-7-7-11-11-11-11-9-9-9-9-12-12-12-12-12-12-12-12-|
Db|-------------------------------------------------------------------------|
Ab|-2-2-2-2-4-4-4-5-5-5-5-5-5-5-9--9--9--9--7-7-7-7-10-10-10-10-10-10-10-10-|
Db|-------------------------------------------------------------------------|

Eb|---------------------------------------------------------------------------|
Bb|---------------------------------------------------------------------------|
Gb|-4-4-4-4-6-6-6-6-9-9-9-9-9-9-7-7-11-11-11-11-11-11-11-11-11-11-11-11-11-11-|
Db|---------------------------------------------------------------------------|
Ab|-2-2-2-2-4-4-4-4-7-7-7-7-7-7-7-7-9--9--9--9--9--9--9--9--9--9--9--9--9--9--|
Db|---------------------------------------------------------------------------|

Bridge Guitar 2:

Eb|----------------------------------------------------------------|
Bb|-------------------3----3----3----------------------3----3----3-|
Gb|-7-7-7----6-6-6----2----2----2----7-7-7----6-6-6----0----0----0-|
Db|-9-9-9----7-7-7----0----0----0----9-9-9----7-7-7----0----0----0-|
Ab|-9-9-9----7-7-7----0----0----0----9-9-9----7-7-7----------------|
Db|-9-9-9----7-7-7----0----0----0----9-9-9----7-7-7----5----5----5-|

Eb|------------------------------------------------------------------|
Bb|-------------------3----3----3--------------------3-3-3-3-3-3-3-3-|
Gb|-7-7-7----6-6-6----2----2----2----0-0-0-0-0-0-0-0-0-0-0-0-0-0-0-0-|
Db|-9-9-9----7-7-7----0----0----0----2-2-2-2-2-2-2-2-0-0-0-0-0-0-0-0-|
Ab|-9-9-9----7-7-7----0----0----0----2-2-2-2-2-2-2-2-----------------|
Db|-9-9-9----7-7-7----0----0----0----2-2-2-2-2-2-2-2-5-5-5-5-5-5-5-5-|


Big Chorus:

Eb|-----------------------------------------------------------------------------------|
Bb|-----------10-10-10-10-10-10-10-10-10-10-10-10-10-10-10-10-10-10-10-10-10-10-10-10-|
Gb|-7----6----7--7--7--7--7--7--7--7--7--7--7--7--7--7--7--7--7--7--7--7--7--7--7--7--|
Db|-9----7----------------------------9--9--9--9--9--9--9--9--------------------------|
Ab|-9----7----9--9--9--9--9--9--9--9--10-10-10-10-10-10-10-10-9--9--9--9--9--9--9--9--|
Db|-9----7----0--0--0--0--0--0--0--0--------------------------0--0--0--0--0--0--0--0--|


Eb|---------------------------------------------------------------------------------|
Bb|-------------------------------------------------3-3-3-3-3-3-3-3-0-0-0-0-0-0-0-0-|
Gb|-14-14-14-14-14-14-14-14-14-14-14-14-14-14-14-14-0-0-0-0-0-0-0-0-0-0-0-0-0-0-0-0-|
Db|-11-11-11-11-11-11-11-11-0--0--0--0--0--0--0--0--0-0-0-0-0-0-0-0-2-2-2-2-2-2-2-2-|
Ab|-12-12-12-12-12-12-12-12-12-12-12-12-12-12-12-12-----------------2-2-2-2-2-2-2-2-|
Db|-11-11-11-11-11-11-11-11-0--0--0--0--0--0--0--0--5-5-5-5-5-5-5-5-2-2-2-2-2-2-2-2-|

Eb|-----------------------------------------------------------------------------------|
Bb|-----------10-10-10-10-10-10-10-10-10-10-10-10-10-10-10-10-10-10-10-10-10-10-10-10-|
Gb|-7----6----7--7--7--7--7--7--7--7--7--7--7--7--7--7--7--7--7--7--7--7--7--7--7--7--|
Db|-9----7----------------------------9--9--9--9--9--9--9--9--------------------------|
Ab|-9----7----9--9--9--9--9--9--9--9--10-10-10-10-10-10-10-10-9--9--9--9--9--9--9--9--|
Db|-9----7----0--0--0--0--0--0--0--0--------------------------0--0--0--0--0--0--0--0--|

Eb|-------------------------------------------------------------------------|
Bb|-------------------------------------------------3-3-3-3-3-3-3-3-3-3-3-3-|
Gb|-14-14-14-14-14-14-14-14-14-14-14-14-14-14-14-14-0-0-0-0-0-0-0-0-0-0-0-0-|
Db|-11-11-11-11-11-11-11-11-0--0--0--0--0--0--0--0--0-0-0-0-0-0-0-0-0-0-0-0-|
Ab|-12-12-12-12-12-12-12-12-12-12-12-12-12-12-12-12-------------------------|
Db|-11-11-11-11-11-11-11-11-0--0--0--0--0--0--0--0--5-5-5-5-5-5-5-5-5-5-5-5-|


[Chorus]

Eb|-----------------------------------------------------------------------|
Bb|-----------------------------------------------------------------------|
Gb|-14-14-14---------------------------14-14-14---------------------------|
Db|-11-11-11-0---------7-7-7-7-7-7-7-7-11-11-11-0---------7-7-7-7-7-7-7-7-|
Ab|-12-12-12-0---------5-5-5-5-5-5-5-5-12-12-12-0---------5-5-5-5-5-5-5-5-|
Db|-11-11-11-0----12\0-0-0-0-0-0-0-0-0-11-11-11-0----12\0-0-0-0-0-0-0-0-0-|

Eb|-----------------------------------------|
Bb|-----------------------------------------|
Gb|-14-14-----------------------------------|
Db|-11-11---9-9-9-9-9-9-9-9-9-9-9-9-9-9-9-9-|
Ab|-12-12-0-9-9-9-9-9-9-9-9-9-9-9-9-9-9-9-9-|
Db|-11-11-0-9-9-9-9-9-9-9-9-9-9-9-9-9-9-9-9-|

Eb|----------------------------------------------------------------|
Bb|-3-3-3-3-3-3-3-3-3-3-3-3-3-3-3-3-3-3-3-3-3----3-3-3-3-3-3-3-3-3-|
Gb|-2-2-2-2-2-2-2-2-2-2-2-2-2-2-2-2-2-2-2-2-2----2-2-2-2-2-2-2-2-2-|
Db|-0-0-0-0-0-0-0-0-0-0-0-0-0-0-0-0-0-0-0-0-0----0-0-0-0-0-0-0-0-0-|
Ab|-0-0-0-0-0-0-0-0-0-0-0-0-0-0-0-0-0-0-0-0-0----0-0-0-0-0-0-0-0-0-|
Db|-0-0-0-0-0-0-0-0-0-0-0-0-0-0-0-0-0-0-0-0-0----0-0-0-0-0-0-0-0-0-|



************************************

| x  Dead note
| b  Bend
| /  Slide up
| \  Slide down

************************************

            
            
Suggest correction
Creating personal tab
Creating personal tab
You can edit any tab online and save it as your Personal.

You can edit, replace or remove any tab part or add personal notes – all changes will be seen only by you.

Personal tabs can be accessed anytime from any device, even offline.
Learn more »
Give kudos to tab author, rate the tab!
1 2 3 4 5
comments
print report bad tab
guest
You may want to rate the tab now too:
select rating
Wanna post a correction for this tab? Suggest correction