Oops, an error
Loading. Please wait.

My Recovery Injection bass

version 2
version 2

Whole song

Interactive

309 views 1 this week
no commentswrite comment
1 2 3 4 5
3 more votes to show rating
add to favorites
×
Save as Personal and add changes to this tab that will be seen only by you. Learn more ›
×
You can save this tab as Personal to edit and correct it or add notes. All changes will be seen only by you. Learn more »
launch autoscroll
font size
0
reset
guitar tuner
edit
Autoscroll
slow
fast
+/-
esc
set tempo
stop
                My Recovery Injection by Biffy Clyro (Bass Tabs)

Hi, this is a some bass tableture to My Recovery Injection by Biffy Clyro's thrid studio 
album 'Infinty Land'. This I probably not how James Johnson plays it but it seems 
pretty accurate. I hope you enjoy this bass tabs, which has many parts, thanks.

E-Mail: Headinthesandband@gmail.com

Tuning: Drop D (DADG)

Intro: (For the album version)
G-----------------------|
D------12----------10---|
A-10-10---10---8-8---8--|  Play this four times.
D-----------------------|

G--------------|
D------12------|
A-10-10--10/3--|
D--------------|

G-----------------|
D------12----10---|
A-10-10---8-8---8-| Play this another four times.
D-----------------|

G---------------------------------------------------|
D---------------------------------------------------|
A-222-222-222-222-222------222-222-222-222-222------|  Listen for timing
D--------------------333-22-------------------555-66|

Single version starts here:
G----------------------------|
D-5-3-6-5--5-3-6-5--5-3-6-5--| Repeat twice.
A--------------------------6-|
D----------------------------|

Pre-Chorus
G--------------------------------------------------|
D--------------------------------------------------|
A--------------------------------------------------|
D-1-1-1-1-1-1-1-1-1-1-10-10-10-10-10-10-10-10-10-10|

G----------|
D-5-3-6-5/1| Repeat this.
A----------|
D----------|

G--------------------------------------------------|
D--------------------------------------------------|
A--------------------------------------------------|
D-1-1-1-1-1-1-1-1-1-1-10-10-10-10-10-10-10-10-10-10|

Chorus:
G---------------------------------------------------------------|
D-------/15-17---------------------------/15-17-----------------|
A-55-55--------55-55---2-2-2-2-2-2-55-55--------1-1-1-1-1-1-1-1-|
D---------------------------------------------------------------|

Verse but at a quicker temo

Chorus

Instrumental:
G--------------------------|
D---------10-10-12-10-12---|
A-----!0!----------------3-|
D-!3!----------------------|

G----------------------------|
D----------------------------|
A----------------------------|
D-!1!-!1!-!1!---!3!-!3!-!3!/6|

Outro:
G---------------------------------------------------------------------------|
D---------------------------------------------------------------------------|
A-666666666666-3333333333-666666666666-33333333333--------------------------|
D---------------------------------------------------------------------------|
----------------------------------------------------------------------------|
___________________________________________________________________________


| ! = Slap
| / = Slide up
| \ = Slide down
| H = Hammer-on
| P = Pull-off
| ~ = Vibrato
| + = Harmonic
| x = Ghost night

            
            
Suggest correction
Creating personal tab
Creating personal tab
You can edit any tab online and save it as your Personal.

You can edit, replace or remove any tab part or add personal notes – all changes will be seen only by you.

Personal tabs can be accessed anytime from any device, even offline.
Learn more »
Give kudos to tab author, rate the tab!
1 2 3 4 5
comments
print report bad tab
guest
You may want to rate the tab now too:
select rating
Wanna post a correction for this tab? Suggest correction