Oops, an error
Loading. Please wait.

Opposite Bass Tab

version 1
version 1

Whole song

Interactive

3,319 views 6 this week
no commentswrite comment
1 2 3 4 5
please rate
add to favorites
launch autoscroll
font size
0
reset
guitar tuner
Autoscroll
slow
fast
+/-
esc
set tempo
stop
Help us to improve Ultimate-Guitar.com Take our survey!
×
Author
Tuning
D A D G B E
-------------------------------------------------------------------------------
                             Opposite - Biffy Clyro
-------------------------------------------------------------------------------
Tabbed by: Alex Hather
E-mail: agingeryeti@hotmail.co.uk

Tuning: Drop D

Intro - No Bass

Pre-Chorus- Comes in at 0:29

G|---------------------------------------------------------------------------|
D|---------------------------------------------------------------------------| x2
A|---------------------------------------------------------------------------|
D|--12~---10~---5~---8--8--8~------------------------------------------------|

Interlude

G|---------------------------------------------------------------------------|
D|---------------------------------------------------------------------------| x2
A|---------------------------------------------------------------------------|
D|--3~---5~---8~-------------------------------------------------------------|

Chorus

G|---------------------------------------------------------------------------|
D|---------------------------------------------------------------------------|
A|---------------------------------------------------------------------------|
D|--10---10--10\5-5-5--/8---8--8\3-3-3--/10---10---\5-5-5--/8---8------------|

Verse

G|---------------------------------------------------------------------------|
D|---------------------------------------------------------------------------| x2
A|---------------------------------------------------------------------------|
D|--3~---3~---12~---8~-------------------------------------------------------|

G|---------------------------------------------------------------------------|
D|---------------------------------------------------------------------------|
A|---------------------------------------------------------------------------|
D|--3~---3~---12~---8-8-8~---------------------------------------------------|

Pre-Chorus

G|---------------------------------------------------------------------------|
D|---------------------------------------------------------------------------| x2
A|---------------------------------------------------------------------------|
D|--12---12--12/10---10---5---5---8-8-8~-------------------------------------|

Chorus

G|---------------------------------------------------------------------------|
D|---------------------------------------------------------------------------| x2
A|---------------------------------------------------------------------------|
D|--10--10--10\5-5-5--/8--8--8\3-3-3--/10--10--\5-5-5--/8--8--/12-12-12------|

Bridge

G|---------------------------------------------------------------------------|
D|---------------------------------------------------------------------------|
A|---------------------------------------------------------------------------|
D|---5-5~---5---3---3---3---3-2-3--------------------------------------------|


G|---------------------------------------------------------------------------|
D|----------3/5-3------------3/5-3-----------------3-------------------------|
A|-----------------5-----------------5-----------------5---------------------|
D|---5-5---------------5-5---------------3--3--3----------/8-----------------|

Chorus

G|---------------------------------------------------------------------------|
D|---------------------------------------------------------------------------|
A|---------------------------------------------------------------------------|
D|--10--10--10\5-5-5--/8--8--8\3-3-3--/10--10--\5-5-5--/8--8--/12-12-12------|

G|---------------------------------------------------------------------------|
D|---------------------------------------------------------------------------|
A|---------------------------------------------------------------------------|
D|--10--10--10\5-5-5--/8--8--8\3-3-3--/10--10--\5-5-5--/8--8-----------------|

Outro

G|---------------------------------------------------------------------------|
D|---------------------------------------------------------------------------| 
A|---------------------------------------------------------------------------|
D|--3~---3~---12~---8~-------------------------------------------------------|

| /  slide up
| \  slide down
| h  hammer-on
| p  pull-off
| ~  vibrato
| +  harmonic
| x  Mute note
========================================================
Suggest correction
What's this?
You can suggest a correction to this tab. Community and Mods will review your correction and vote to approve or reject it.
comments
We did not receive enough feedback on this tab! Please rate:
print report bad tab
1 2 3 4 5
guest
You may want to rate the tab now too:
select rating
Please do not post tabs as comments. Select "correction" instead!