Oops, an error
Loading. Please wait.

Opposite tab

version 2
version 2

Whole song

Interactive

17,242 views 15 this week
no commentswrite comment
1 2 3 4 5
2 more votes to show rating
add to favorites
×
Save as Personal and add changes to this tab that will be seen only by you. Learn more ›
×
You can save this tab as Personal to edit and correct it or add notes. All changes will be seen only by you. Learn more »
launch autoscroll
font size
0
reset
how to read this tab
guitar tuner
edit
Autoscroll
slow
fast
+/-
esc
set tempo
stop
Tuning is drop D (lower low E sting half a step to D, all other strings are normal tuning)
this is just from me listening to the song on my MP3 player, if you could make any improvements
then that would be great, but i know that my position is correct as far as i can hear,
this isn't improvised version, its how simon plays it. cheers

Its my first live tab that i've posted, let me know what you think.
anthonyjquigley@gmail.com for any questions.


verse/intro
---------------------------------------------------------------------------|
--------------------------------------------1------------------------------|
---0h2--2-2--------0h2--2-0--------0h2--2-----2--2---3--3--2---------------|
---3----3-3--------3--------3------3--------------------------3------------|
(3)-----------(3)---------------------------------0h1----------------------|
-3-------------3---------------0-------------------------------------------|
      I look in the glass...
-------------------------------------------------|
-------------------------------------------------|
--10-------------------9----------------------7--|
--12--x8(fast short)---10--x8 (fast short)----8--|listen for shythm
-------------------------------------------------|
--12-------------------10---------------------8--|


take care of the ones thats you love
------------------------------------------------------------------------------|
------------------------------------------------------------------------------|
--2------------------3----------------7---------------------------7------^----|
--3------------------5----------------8--------------repeat-------8-----------|strum
------------------------------------------------------------------------------|
--3------------------5----------------8---------------------------8------V----|


        Baby im leaving here       You need to be with somebody else
------------------------------------------------------------------------------|
------------------------------------------------------------------------------|
--9--------------3---------------7-------------2------------------------------|
--10-------------5---------------8-------------3------------------------------|strum
------------------------------------------------------------------------------|
--10-------------5---------------8-------------3------------------------------|

same s above for can't stop bleeding here, can you suture my wounds. the 332 on the verse
above this line for the last part of the chorus (can you suture my sounds) ends up with the
332 at the end leading into the intro/verse again.

        Sooner or later, we all have to wait
---------------------------------------------------------------------------|
---------------------------------------------------------------------------|
--10-------------------9------------------7--------------------------------|
--12--x8(fast short)---10--x8 (fast shor--8--listen for shythm-------------|
---------------------------------------------------------------------------|
--12-------------------10-----------------8--------------------------------|

 weird break
----------------------------------------------------------------------------|
---------------------------------------------6-pulloff-3--------------------|
------------------5 pulloff 0---------3--2-----------------5---3-----2------|
-------------------------------0--0----------------------------------3------|strum
----------------------------------------------------------------------------|
--0-slide--5-5-------------------------------------------------------3------|

            
            
Suggest correction
Creating personal tab
Creating personal tab
You can edit any tab online and save it as your Personal.

You can edit, replace or remove any tab part or add personal notes – all changes will be seen only by you.

Personal tabs can be accessed anytime from any device, even offline.
Learn more »
Give kudos to tab author, rate the tab!
1 2 3 4 5
comments
print report bad tab
guest
You may want to rate the tab now too:
select rating
Wanna post a correction for this tab? Suggest correction