Oops, an error
Loading. Please wait.

People Tab

103 views 6 this week
no commentswrite comment
1 2 3 4 5
2 more votes to show rating
add to favorites
launch autoscroll
font size
0
reset
how to read this tab
guitar tuner
Autoscroll
slow
fast
+/-
esc
set tempo
stop
Help us to improve Ultimate-Guitar.com Take our survey!
×
Author
Tuning
D# G# C# F# A# D#
Tuning: Half-Step-Down  D# G# C# F# A# D#
Tab by faceingkind
cover video: https://www.youtube.com/watch?v=TNA7aDjEIls


[Intro]
D#|-0-0-0-0---0---0-0-0-0---0----0-0-0-0---0---0-0-0-0---1--------------------|
A#|-2-2-2-2---3---2-2-2-2---3----2-2-2-2---3---2-2-2-2---3--------------------|
F#|-2-2-2-2---2---2-2-2-2---2----2-2-2-2---2---2-2-2-2---2--------------------|
C#|-2-2-2-2---3---2-2-2-2---0----2-2-2-2---3---2-2-2-2---0--------------------|
G#|-0-0-0-0---0---0-0-0-0---0----0-0-0-0---0---0-0-0-0---0--------------------|
D#|---------------------------------------------------------------------------|

[Verse 1] I didn't mean to hurt you...
D#|-0-0-0-0---0---0-0-0-0---0----0-0-0-0---0---0-0-0-0---1--------------------|
A#|-2-2-2-2---3---2-2-2-2---3----2-2-2-2---3---2-2-2-2---3--------------------|
F#|-2-2-2-2---2---2-2-2-2---2----2-2-2-2---2---2-2-2-2---2--------------------|
C#|-2-2-2-2---3---2-2-2-2---0----2-2-2-2---3---2-2-2-2---0--------------------|
G#|-0-0-0-0---0---0-0-0-0---0----0-0-0-0---0---0-0-0-0---0--------------------|
D#|---------------------------------------------------------------------------|

Why do we plead in protest...
D#|-0-0-0-0-0-0-0-0---1-1-1-1-1-1-1-1-----0-0-0-0-0-0-0-0---1-1-1-1-1-1-1-1---|
A#|-1-1-1-1-1-1-1-1---1-1-1-1-1-1-1-1-----1-1-1-1-1-1-1-1---1-1-1-1-1-1-1-1---|
F#|-0-0-0-0-0-0-0-0---2-2-2-2-2-2-2-2-----0-0-0-0-0-0-0-0---2-2-2-2-2-2-2-2---|
C#|-2-2-2-2-2-2-2-2---3-3-3-3-3-3-3-3-----2-2-2-2-2-2-2-2---3-3-3-3-3-3-3-3---|
G#|-3-3-3-3-3-3-3-3---3-3-3-3-3-3-3-3-----3-3-3-3-3-3-3-3---3-3-3-3-3-3-3-3---|
D#|---------------------------------------------------------------------------|

[Chorus]: Light illuminates darkness...
D#|-3-3-3-3-3-3-3-3---1-1-1-1-1-1-1-1---1-1-1-1-1-1-1-1---3-3-3-3-3-3-3-3-----|
A#|-3-3-3-3-3-3-3-3---3-3-3-3-3-3-3-3---1-1-1-1-1-1-1-1---1-1-1-1-1-1-1-1-----|
F#|-0-0-0-0-0-0-0-0---2-2-2-2-2-2-2-2---2-2-2-2-2-2-2-2---0-0-0-0-0-0-0-0-----| x2
C#|-0-0-0-0-0-0-0-0---0-0-0-0-0-0-0-0---3-3-3-3-3-3-3-3---2-2-2-2-2-2-2-2-----|
G#|-x-x-x-x-x-x-x-x---0-0-0-0-0-0-0-0---------------------3-3-3-3-3-3-3-3-----|
D#|-3-3-3-3-3-3-3-3-----------------------------------------------------------|

[Verse 2] I didn't mean to curse you...
D#|-0-0-0-0-0-0-0-0---0-0-0-0-0-0-0-0---0-0-0-0-0-0-0-0---0-0-0-0-0-0-0-0-----|
A#|-2-2-2-2-2-2-2-2---3-3-3-3-3-3-3-3---2-2-2-2-2-2-2-2---3-3-3-3-3-3-3-3-----|
F#|-2-2-2-2-2-2-2-2---2-2-2-2-2-2-2-2---2-2-2-2-2-2-2-2---2-2-2-2-2-2-2-2-----|
C#|-2-2-2-2-2-2-2-2---3-3-3-3-3-3-3-3---2-2-2-2-2-2-2-2---0-0-0-0-0-0-0-0-----|
G#|-0-0-0-0-0-0-0-0---0-0-0-0-0-0-0-0---0-0-0-0-0-0-0-0---0-0-0-0-0-0-0-0-----|
D#|---------------------------------------------------------------------------|

your patience it's a virtue...
D#|-0-0-0-0-0-0-0-0---0-0-0-0-0-0-0-0---0-0-0-0-0-0-0-0---1-1-1-1-1-1-1-1-----|
A#|-2-2-2-2-2-2-2-2---3-3-3-3-3-3-3-3---2-2-2-2-2-2-2-2---3-3-3-3-3-3-3-3-----|
F#|-2-2-2-2-2-2-2-2---2-2-2-2-2-2-2-2---2-2-2-2-2-2-2-2---2-2-2-2-2-2-2-2-----|
C#|-2-2-2-2-2-2-2-2---3-3-3-3-3-3-3-3---2-2-2-2-2-2-2-2---0-0-0-0-0-0-0-0-----|
G#|-0-0-0-0-0-0-0-0---0-0-0-0-0-0-0-0---0-0-0-0-0-0-0-0---0-0-0-0-0-0-0-0-----|
D#|---------------------------------------------------------------------------|

Why do we plead in protest...
D#|-0-0-0-0-0-0-0-0---1-1-1-1-1-1-1-1-----0-0-0-0-0-0-0-0---1-1-1-1-1-1-1-1---|
A#|-1-1-1-1-1-1-1-1---1-1-1-1-1-1-1-1-----1-1-1-1-1-1-1-1---1-1-1-1-1-1-1-1---|
F#|-0-0-0-0-0-0-0-0---2-2-2-2-2-2-2-2-----0-0-0-0-0-0-0-0---2-2-2-2-2-2-2-2---|
C#|-2-2-2-2-2-2-2-2---3-3-3-3-3-3-3-3-----2-2-2-2-2-2-2-2---3-3-3-3-3-3-3-3---|
G#|-3-3-3-3-3-3-3-3---3-3-3-3-3-3-3-3-----3-3-3-3-3-3-3-3---3-3-3-3-3-3-3-3---|
D#|---------------------------------------------------------------------------|

[Chorus] Light illuminates darkness...
D#|-3-3-3-3-3-3-3-3---1-1-1-1-1-1-1-1---1-1-1-1-1-1-1-1---3-3-3-3-3-3-3-3-----|
A#|-3-3-3-3-3-3-3-3---3-3-3-3-3-3-3-3---1-1-1-1-1-1-1-1---1-1-1-1-1-1-1-1-----|
F#|-0-0-0-0-0-0-0-0---2-2-2-2-2-2-2-2---2-2-2-2-2-2-2-2---0-0-0-0-0-0-0-0-----| x2
C#|-0-0-0-0-0-0-0-0---0-0-0-0-0-0-0-0---3-3-3-3-3-3-3-3---2-2-2-2-2-2-2-2-----|
G#|-x-x-x-x-x-x-x-x---0-0-0-0-0-0-0-0---------------------3-3-3-3-3-3-3-3-----|
D#|-3-3-3-3-3-3-3-3-----------------------------------------------------------|

Home is a place i don't belong
D#|-0-0-0-0-0-0-0-0---1-1-1-1-1-1-1-1---3-3-3-3-3-3-3-3---0-0-0-0-0-0-0-0-----|
A#|-0-0-0-0-0-0-0-0---1-1-1-1-1-1-1-1---3-3-3-3-3-3-3-3---x-x-x-x-x-x-x-x-----|
F#|-0-0-0-0-0-0-0-0---2-2-2-2-2-2-2-2---0-0-0-0-0-0-0-0---2-2-2-2-2-2-2-2-----|
C#|-2-2-2-2-2-2-2-2---3-3-3-3-3-3-3-3---0-0-0-0-0-0-0-0---2-2-2-2-2-2-2-2-----|
G#|-2-2-2-2-2-2-2-2---3-3-3-3-3-3-3-3---x-x-x-x-x-x-x-x---0-0-0-0-0-0-0-0-----|
D#|-0-0-0-0-0-0-0-0---------------------3-3-3-3-3-3-3-3-----------------------|

My words are like a bomb
D#|-0-0-0-0-0-0-0-0---1-1-1-1-1-1-1-1-----------------------------------------|
A#|-0-0-0-0-0-0-0-0---1-1-1-1-1-1-1-1-----------------------------------------|
F#|-0-0-0-0-0-0-0-0---2-2-2-2-2-2-2-2-----------------------------------------|
C#|-2-2-2-2-2-2-2-2---3-3-3-3-3-3-3-3-----------------------------------------|
G#|-2-2-2-2-2-2-2-2---3-3-3-3-3-3-3-3-----------------------------------------|
D#|-0-0-0-0-0-0-0-0-----------------------------------------------------------|

I have the cruelest mouth.....
D#|-0-0-0-0-0-0-0-0---0-0-0-0-0-0-0-0---0-0-0-0-0-0-0-0---0-0-0-0-0-0-0-0-----|
A#|-1-1-1-1-1-1-1-1---0-0-0-0-0-0-0-0---1-1-1-1-1-1-1-1---0-0-0-0-0-0-0-0-----|
F#|-0-0-0-0-0-0-0-0---0-0-0-0-0-0-0-0---0-0-0-0-0-0-0-0---0-0-0-0-0-0-0-0-----|
C#|-2-2-2-2-2-2-2-2---2-2-2-2-2-2-2-2---2-2-2-2-2-2-2-2---2-2-2-2-2-2-2-2-----|
G#|-3-3-3-3-3-3-3-3---2-2-2-2-2-2-2-2---3-3-3-3-3-3-3-3---2-2-2-2-2-2-2-2-----|
D#|-------------------0-0-0-0-0-0-0-0---------------------0-0-0-0-0-0-0-0-----|

And a sick little tongue
D#|-1-1-1-1-1-1-1-1---1-1-1-1-1-1-1-1------0-0-0-0------0-0-0-0---------------|
A#|-1-1-1-1-1-1-1-1---1-1-1-1-1-1-1-1------2-2-2-2------2-2-2-2---------------|
F#|-2-2-2-2-2-2-2-2---1-1-1-1-1-1-1-1------2-2-2-2------2-2-2-2---------------|
C#|-3-3-3-3-3-3-3-3---3-3-3-3-3-3-3-3------2-2-2-2------2-2-2-2---------------|
G#|----------------------------------------0-0-0-0------0-0-0-0---------------|
D#|---------------------------------------------------------------------------|

************************************
thanks for watching. If you still have problems with this song you can check out my
cover of People on guitar.
Link is on top. Cheers!!!

| x   Dead note
| g   Grace note
| (n) Ghost note
| h   Hammer-on
| p   Pull-off
| r   Release
| >   Accented note
| t   Tapping
| b   Bend
| br  Bend release
| pb  Pre-bend
| pbr Pre-bend release
| /   Slide up
| \   Slide down
| ~   Vibrato
| s   Slap
| P   Pop
| PM  Palm mute
| TR  Trill
| N   Tremolo
************************************
Suggest correction
Give kudos to tab author, rate the tab!
1 2 3 4 5
comments
print report bad tab
guest
You may want to rate the tab now too:
select rating
Wanna post a correction for this tab? Suggest correction