Oops, an error
Loading. Please wait.

Pocket Tab

version 1
version 1

Whole song

20,309 views 15 this week
5 commentsread comments
1 2 3 4 5
excellent!
x 15
add to favorites
launch autoscroll
font size
0
reset
how to read this tab
guitar tuner
Autoscroll
slow
fast
+/-
esc
set tempo
stop
Help us to improve Ultimate-Guitar.com Take our survey!
×
Author
ed182 1,983
-------------------------------------------------------------------------------
                             Pocket - Biffy Clyro
-------------------------------------------------------------------------------

Tuning:DADGBE

I think all of this album is in drop C# or something.
I can't seem to get the nice open chords that Simon does just using drop D but here's
what I got...

Update: Found a vid of them playing this live, turns out they play it live in drop C# 
but the album version is drop D from what I gather.
I've made some changes to chords and to the solo, judging by his hand positions and stuff. 
Outro lead guitar is included too.


Intro

e|0--0-----0-----------------------------------------------------------------|
B|2--3--2--0-----------------------------------------------------------------|
G|2--2--2--1-----------------------------------------------------------------|
D|2--0--4--2-----------------------------------------------------------------|   x8
A|0--0--4--2-----------------------------------------------------------------|
D|---------------------------------------------------------------------------|


e|---------0-----------------------------------------------------------------|
B|3--3--2--0-----------------------------------------------------------------|
G|2--4--2--1-----------------------------------------------------------------|
D|0--4--4--2-----------------------------------------------------------------|   x1
A|0--2--4--2-----------------------------------------------------------------|
D|---------------------------------------------------------------------------|

e|0--------0-----------------------------------------------------------------|
B|2--3--2--0-----------------------------------------------------------------|
G|2--2--2--1-----------------------------------------------------------------|
D|2--0--4--2-----------------------------------------------------------------|   x8
A|0--0--4--2-----------------------------------------------------------------|
D|---------------------------------------------------------------------------|



Pre chorus (strum these chords)

e|---------0-----------------------------------------------------------------|
B|3--3--2--0-----------------------------------------------------------------|
G|2--4--2--1-----------------------------------------------------------------|
D|0--4--4--2-----------------------------------------------------------------|
A|0--2--4--2-----------------------------------------------------------------|
D|---------------------------------------------------------------------------|

Chorus

e|-------------0-0-0-0---0---------------------------------------------------|
B|3-3-3-3---3--2-2-2-2---2--2-2-2-2---2--3-3-3-3---3-------------------------|
G|2-2-2-2---2--2-2-2-2---2--2-2-2-2---2--2-2-2-2---2-------------------------|
D|0-0-0-0---0--2-2-2-2---2--4-4-4-4---4--0-0-0-0---0-------------------------|
A|0-0-0-0---0--0-0-0-0---0--4-4-4-4---4--0-0-0-0---0-------------------------|
D|0-0-0-0---0----------------------------0-0-0-0---0-------------------------|

e|-------------0-0-0-0---0---------------------------------------------------|
B|3-3-3-3---3--2-2-2-2---2--2-2-2-2---2--0-0-0-0---0-------------------------|
G|2-2-2-2---2--2-2-2-2---2--2-2-2-2---2--1-1-1-1---1-------------------------|
D|0-0-0-0---0--2-2-2-2---2--4-4-4-4---4--2-2-2-2---2-------------------------|
A|0-0-0-0---0--0-0-0-0---0--4-4-4-4---4--2-2-2-2---2-------------------------|
D|0-0-0-0---0----------------------------2-2-2-2---2-------------------------|

e|-------------0-0-0-0---0---------------------------------------------------|
B|3-3-3-3---3--2-2-2-2---2--2-2-2-2---2--3-3-3-3---3--3-3-3-3----------------|
G|2-2-2-2---2--2-2-2-2---2--2-2-2-2---2--2-2-2-2---2--4-4-4-4-7-7-7-9-9-9-9-9|
D|0-0-0-0---0--2-2-2-2---2--4-4-4-4---4--0-0-0-0---0--4-4-4-4-7-7-7-9-9-9-9-9|
A|0-0-0-0---0--0-0-0-0---0--4-4-4-4---4--0-0-0-0---0--2-2-2-2-5-5-5-7-7-7-7-7|
D|0-0-0-0---0----------------------------0-0-0-0---0-------------------------|


Solo

Guitar 1

e|---------------------------------------------------------------------------|
B|-------------------------------------10-9-10-12-12-10-9-10\----------------|
G|---9br---7-6-7-4-4h6p4---2---9-9brb----------------------------------------|
D|-7-------------------------------------------------------------------------|
A|---------------------------------------------------------------------------|
D|---------------------------------------------------------------------------|

e|------------------------------------------17-16----------------------------|
B|---/5--10-9-10-12-12-10-9-10------/17\14--------12b--12b--12-10------------|
G|-2-------------------------------------------------------------------------|
D|---------------------------------------------------------------------------|
A|---------------------------------------------------------------------------|
D|---------------------------------------------------------------------------|


Guitar 2 - play this for the whole solo

e|---------------------------------------------------------------------------|
B|---------------------------------------------------------------------------|
G|---------------------------------------------------------------------------|
D|7-7---0-----4-4---2--------------------------------------------------------|
A|7-7---0-----4-4---2--------------------------------------------------------|
D|7-7---0-----4-4---2--------------------------------------------------------|



I'm just waiting for a change...

e|---------------------------------------------------------------------------|
B|-15--15--------------------------------------------------------------------|
G|-14--16--------------------------------------------------------------------|
D|-0---0---------4444444444444444-2222222222222222---------------------------|
A|---------------4444444444444444-2222222222222222---------------------------|
D|---------------4444444444444444-2222222222222222---------------------------|

Chorus again

Outro is the same as the solo for guitar 2. Guitar 1 is playing this...

e|---------------------------------------------------------------------------|
B|-10101010-9999-10101010-12121212-14141414-10101010-14141414-151515---------|
G|-x-x-x-x--xxxx-x-x-x-x--x-x-x-x--x-x-x-x--x-x-x-x--x-x-x-x--x-x-x----------|
D|-x-x-x-x--xxxx-x-x-x-x--x-x-x-x--x-x-x-x--x-x-x-x--x-x-x-x--x-x-x----------|
A|-0-0-0-0--0000-0-0-0-0--0-0-0-0--0-0-0-0--0-0-0-0--0-0-0-0--0-0-0----------|
D|---------------------------------------------------------------------------|

e|---------------------------------------------------------------------------|
B|17171717171717171717171717-14-1515-17171717171717171717--------------------|
G|x-x-x-x-x-x-x-x-x-x-x-x-x--x--x-x--x-x-x-x-x-x-x-x-x-x---------------------|
D|x-x-x-x-x-x-x-x-x-x-x-x-x--x--x-x--x-x-x-x-x-x-x-x-x-x---------------------|
A|0-0-0-0-0-0-0-0-0-0-0-0-0--0--0-0--0-0-0-0-0-0-0-0-0-0---------------------|
D|---------------------------------------------------------------------------|

e|---------------------------------------------------------------------------|
B|1414-1515-1414-1212-1414-10------------------------------------------------|
G|x-x--x-x--x-x--x-x--x-x--x-------------------------------------------------|
D|x-x--x-x--x-x--x-x--x-x--x-------------------------------------------------|
A|0-0--0-0--0-0--0-0--0-0--0-------------------------------------------------|
D|---------------------------------------------------------------------------|


************************************

| /   slide up
| \   slide down
| h   hammer-on
| p   pull-off
| ~   vibrato
| +   harmonic
| x   Mute note
| b   Bend
| pb  Pre-bend
| br  Bend release
| pbr Pre-bend release
| brb Bend release bend

************************************
Suggest correction
What's this?
You can suggest a correction to this tab. Community and Mods will review your correction and vote to approve or reject it.
comments
print report bad tab
5 comments total. Showing first comments. show 1 bad comment
+1 reply
calger14 535 wrote on April 11 2013, 12:42 pm

First correct tab from this album! Thank you

+1 reply
lost-rose 59 wrote on June 6 2013, 02:59 pm

super thanks ;)

guest
You may want to rate the tab now too:
select rating
Please do not post tabs as comments. Select "correction" instead!