Oops, an error
Loading. Please wait.

Re-Arrange tab

version 1
version 1

Whole song

  • This is tabbed in Standard tuning and can be played with or without a capo.
4,753 views 51 this week
no commentswrite comment
1 2 3 4 5
x 5
add to favorites
×
Save as Personal and add changes to this tab that will be seen only by you. Learn more ›
×
You can save this tab as Personal to edit and correct it or add notes. All changes will be seen only by you. Learn more »
launch autoscroll
font size
0
reset
how to read this tab
guitar tuner
edit
Autoscroll
slow
fast
+/-
esc
set tempo
stop
Author
Tuning: C#G#C#F#G#C#
Tab by faceingkind
Cover Video: https://www.youtube.com/watch?v=n71d0gUUGZ4

[Intro]
C#|--------------------------------|--------------------------------------------|
G#|-10--10--10--10--10--10--10--10-|--10--10--10--10--10--10--10--10------------|
F#|-x---x---x---x---x---x---x---x--|--x---x---x---x---x---x---x---x-------------|
C#|-10--10--10--10--10--10--10--10-|--10--10--10--10--10--10--10--10------------|
G#|-8---8---8---8---8---8---8---8--|--x---x---x---x---x---x---x---x-------------|
C#|--------------------------------|--10--10--10--10--10--10--10--10------------|


C#|-----------------------------------------------------------------------------|
G#|--10--10--10--10--10--10--10--10--10--10--10--10--10--10--10--10-------------|
F#|--x---x---x---x---x---x---x---x---x---x---x---x---x---x---x---x--------------|
C#|--10--10--10--10--10--10--10--10--10--10--10--10--10--10--10--10-------------|
G#|--x---x---x---x---x---x---x---x---x---x---x---x---x---x---x---x--------------|
C#|--8---8---8---8---8---8---8---8---8---8---8---8---8---8---8---8--------------|


C#|--------------------------------|--------------------------------------------|
G#|-10--10--10--10--10--10--10--10-|--10--10--10--10--10--10--10--10------------|
F#|-x---x---x---x---x---x---x---x--|--x---x---x---x---x---x---x---x-------------|
C#|-10--10--10--10--10--10--10--10-|--10--10--10--10--10--10--10--10------------|
G#|-8---8---8---8---8---8---8---8--|--x---x---x---x---x---x---x---x-------------|
C#|--------------------------------|--10--10--10--10--10--10--10--10------------|


C#|-----------------------------------------------------------------------------|
G#|--10--10--10--10--10--10--10--10--10--10--10--10--10--10--10--10-------------|
F#|--x---x---x---x---x---x---x---x---x---x---x---x---x---x---x---x--------------|
C#|--10--10--10--10--10--10--10--10--10--10--10--10--10--10--10--10-------------|
G#|--x---x---x---x---x---x---x---x---x---x---x---x---x---x---x---x--------------|
C#|--8---8---8---8---8---8---8---8---8---8---8---8---8---8---8---8--------------|


Verse 1: I've got a lot of love
C#|--------10------------------10------------------10---------------10----------|
G#|------8----8--------------8----8--------------8----8-----------8----8--------|
F#|----9--------9---9------9--------9---9------9--------9---9---9--------9---9--|
C#|--0------------0--------------------------8------------8---8------------8----| x2
G#|----------------------8------------8-----------------------------------------|
C#|-----------------------------------------------------------------------------|

I wrote a hundred songs
C#|---------10------------------10------------------10---------------10---------|
G#|-------8----8--------------8----8--------------8----8-----------8----8-------|
F#|-----9--------9----9-----9--------9---9------9--------9---9---9--------9---9-|
C#|--10------------10-------------------------8------------8---8------------8---|
G#|-----------------------8------------8----------------------------------------|
C#|-----------------------------------------------------------------------------|


C#|---------10------------------10------------------10---------------10---------|
G#|-------8----8--------------8----8--------------8----8-----------8----8-------|
F#|-----9--------9----9-----9--------9---9------9--------9---9---9--------9---9-|
C#|--10------------10-----0------------0------8------------8---8------------8---|
G#|-----------------------------------------------------------------------------|
C#|-----------------------------------------------------------------------------|


Chorus: Cause I would never break your heart
C#|--------------------------------|--------------------------------------------|
G#|-10--10--10--10--10--10--10--10-|--10--10--10--10--10--10--10--10------------|
F#|-x---x---x---x---x---x---x---x--|--x---x---x---x---x---x---x---x-------------|
C#|-10--10--10--10--10--10--10--10-|--10--10--10--10--10--10--10--10------------|
G#|-8---8---8---8---8---8---8---8--|--x---x---x---x---x---x---x---x-------------|
C#|--------------------------------|--10--10--10--10--10--10--10--10------------|

                                                                      uhhhhhh
C#|-----------------------------------------------------------------|-----------|
G#|--10--10--10--10--10--10--10--10--10--10--10--10--10--10--10--10-|-----------|
F#|--x---x---x---x---x---x---x---x---x---x---x---x---x---x---x---x--|------3----|
C#|--10--10--10--10--10--10--10--10--10--10--10--10--10--10--10--10-|x4----0----|
G#|--x---x---x---x---x---x---x---x---x---x---x---x---x---x---x---x--|------x----|
C#|--8---8---8---8---8---8---8---8---8---8---8---8---8---8---8---8--|------5----|


[Intro]
C#|--------------------------------|--------------------------------------------|
G#|-10--10--10--10--10--10--10--10-|--10--10--10--10--10--10--10--10------------|
F#|-x---x---x---x---x---x---x---x--|--x---x---x---x---x---x---x---x-------------|
C#|-10--10--10--10--10--10--10--10-|--10--10--10--10--10--10--10--10------------|
G#|-8---8---8---8---8---8---8---8--|--x---x---x---x---x---x---x---x-------------|
C#|--------------------------------|--10--10--10--10--10--10--10--10------------|


C#|-----------------------------------------------------------------------------|
G#|--10--10--10--10--10--10--10--10--10--10--10--10--10--10--10--10-------------|
F#|--x---x---x---x---x---x---x---x---x---x---x---x---x---x---x---x--------------|
C#|--10--10--10--10--10--10--10--10--10--10--10--10--10--10--10--10-------------|
G#|--x---x---x---x---x---x---x---x---x---x---x---x---x---x---x---x--------------|
C#|--8---8---8---8---8---8---8---8---8---8---8---8---8---8---8---8--------------|


C#|--------------------------------|--------------------------------------------|
G#|-10--10--10--10--10--10--10--10-|--10--10--10--10--10--10--10--10------------|
F#|-x---x---x---x---x---x---x---x--|--x---x---x---x---x---x---x---x-------------|
C#|-10--10--10--10--10--10--10--10-|--10--10--10--10--10--10--10--10------------|
G#|-8---8---8---8---8---8---8---8--|--x---x---x---x---x---x---x---x-------------|
C#|--------------------------------|--10--10--10--10--10--10--10--10------------|


C#|-----------------------------------------------------------------------------|
G#|--10--10--10--10--10--10--10--10--10--10--10--10--10--10--10--10-------------|
F#|--x---x---x---x---x---x---x---x---x---x---x---x---x---x---x---x--------------|
C#|--10--10--10--10--10--10--10--10--10--10--10--10--10--10--10--10-------------|
G#|--x---x---x---x---x---x---x---x---x---x---x---x---x---x---x---x--------------|
C#|--8---8---8---8---8---8---8---8---8---8---8---8---8---8---8---8--------------|


Verse 2: I've got a lot of rage
C#|--------10------------------10------------------10---------------10----------|
G#|------8----8--------------8----8--------------8----8-----------8----8--------|
F#|----9--------9---9------9--------9---9------9--------9---9---9--------9---9--|
C#|--0------------0--------------------------8------------8---8------------8----| x2
G#|----------------------8------------8-----------------------------------------|
C#|-----------------------------------------------------------------------------|

I scratch at my eyes
C#|---------10------------------10------------------10---------------10---------|
G#|-------8----8--------------8----8--------------8----8-----------8----8-------|
F#|-----9--------9----9-----9--------9---9------9--------9---9---9--------9---9-|
C#|--10------------10-------------------------8------------8---8------------8---|
G#|-----------------------8------------8----------------------------------------|
C#|-----------------------------------------------------------------------------|


C#|---------10------------------10------------------10---------------10---------|
G#|-------8----8--------------8----8--------------8----8-----------8----8-------|
F#|-----9--------9----9-----9--------9---9------9--------9---9---9--------9---9-|
C#|--10------------10-----0------------0------8------------8---8------------8---|
G#|-----------------------------------------------------------------------------|
C#|-----------------------------------------------------------------------------|


Chorus: Cause I would never break your heart
C#|--------------------------------|--------------------------------------------|
G#|-10--10--10--10--10--10--10--10-|--10--10--10--10--10--10--10--10------------|
F#|-x---x---x---x---x---x---x---x--|--x---x---x---x---x---x---x---x-------------|
C#|-10--10--10--10--10--10--10--10-|--10--10--10--10--10--10--10--10------------|
G#|-8---8---8---8---8---8---8---8--|--x---x---x---x---x---x---x---x-------------|
C#|--------------------------------|--10--10--10--10--10--10--10--10------------|


C#|-----------------------------------------------------------------|-----------|
G#|--10--10--10--10--10--10--10--10--10--10--10--10--10--10--10--10-|-----------|
F#|--x---x---x---x---x---x---x---x---x---x---x---x---x---x---x---x--|------3----|
C#|--10--10--10--10--10--10--10--10--10--10--10--10--10--10--10--10-|x4----0----|
G#|--x---x---x---x---x---x---x---x---x---x---x---x---x---x---x---x--|------x----|
C#|--8---8---8---8---8---8---8---8---8---8---8---8---8---8---8---8--|------5----|


Bridge Melody: 
C#|--------10-------10---------------10---------10----------10-----------------10|
G#|------8--------8----8-----------8----------8-----------8----8-------------8---|
F#|----9--------9--------9---9---9----------9-----------9--------9----9----9-----|
C#|--7--------8------------8---8---------------------10------------10---10-------|
G#|---------------------------------------8--------------------------------------|
C#|------------------------------------------------------------------------------|


C#|--------10-------10---------------10----------10-------10---------------10----|
G#|------8--------8----8-----------8-----------8--------8----8-----------8-------|
F#|----9--------9--------9---9---9-----------9--------9--------9---9---9---------|
C#|--7--------8------------8---8----------10--------0------------0---0-----------|
G#|------------------------------------------------------------------------------|
C#|------------------------------------------------------------------------------|


C#|--------10-------10---------------10---------10----------10-----------------10|
G#|------8--------8----8-----------8----------8-----------8----8-------------8---|
F#|----9--------9--------9---9---9----------9-----------9--------9----9----9-----|
C#|--7--------8------------8---8---------------------10------------10---10-------|
G#|---------------------------------------8--------------------------------------|
C#|------------------------------------------------------------------------------|



C#|--------10-------10---------------10----------10-------10---------------10----|
G#|------8--------8----8-----------8-----------8--------8----8-----------8-------|
F#|----9--------9--------9---9---9-----------9--------9--------9---9---9---------|
C#|--7--------8------------8---8----------10--------0------------0---0-----------|
G#|------------------------------------------------------------------------------|
C#|------------------------------------------------------------------------------|


Chorus: Cause I would never break your heart
C#|--------------------------------|--------------------------------------------|
G#|-10--10--10--10--10--10--10--10-|--10--10--10--10--10--10--10--10------------|
F#|-x---x---x---x---x---x---x---x--|--x---x---x---x---x---x---x---x-------------|
C#|-10--10--10--10--10--10--10--10-|--10--10--10--10--10--10--10--10------------|
G#|-8---8---8---8---8---8---8---8--|--x---x---x---x---x---x---x---x-------------|
C#|--------------------------------|--10--10--10--10--10--10--10--10------------|


C#|-----------------------------------------------------------------|-----------|
G#|--10--10--10--10--10--10--10--10--10--10--10--10--10--10--10--10-|-----------|
F#|--x---x---x---x---x---x---x---x---x---x---x---x---x---x---x---x--|------3----|
C#|--10--10--10--10--10--10--10--10--10--10--10--10--10--10--10--10-|x4----0----|
G#|--x---x---x---x---x---x---x---x---x---x---x---x---x---x---x---x--|------x----|
C#|--8---8---8---8---8---8---8---8---8---8---8---8---8---8---8---8--|------5----|

If you still need help message me or check out my cover (link on top). Cheers!!!!

************************************

| x   Dead note

************************************

            
            
Suggest correction
Creating personal tab
Creating personal tab
You can edit any tab online and save it as your Personal.

You can edit, replace or remove any tab part or add personal notes – all changes will be seen only by you.

Personal tabs can be accessed anytime from any device, even offline.
Learn more »
comments
print report bad tab
guest
You may want to rate the tab now too:
select rating
Wanna post a correction for this tab? Suggest correction