Oops, an error
Loading. Please wait.

Re-Arrange tab

version 2
version 2

Whole song

  • This is tabbed in Standard tuning and can be played with or without a capo.
5,581 views 42 this week
no commentswrite comment
1 2 3 4 5
x 4
add to favorites
×
Save as Personal and add changes to this tab that will be seen only by you. Learn more ›
×
You can save this tab as Personal to edit and correct it or add notes. All changes will be seen only by you. Learn more »
launch autoscroll
font size
0
reset
how to read this tab
guitar tuner
edit
Autoscroll
slow
fast
+/-
esc
set tempo
stop
Author
About this tab version
This is tabbed in Standard tuning and can be played with or without a capo. Was this info helpful? Yes No
Re-Arrange by Biffy Clyro
tabbed by Brands99
STANDARD tuning

[ *CAN be played with CAPO on the 7th fret* ]


[intro]    [0:00 - 0:10]                [End of intro]  
e|-----------------------------------| |--------------|
B|-----------------------------------| |--------------|
G|--11-11-11-11-11-11-11-11-11-------| |-9-9-9-9-9-9--|
D|--9--9--9--9--9--9--9--9-9---------| |-7-7-7-7-7-7--|
A|-----------------------------------| |--------------|
E|-----------------------------------| |--------------|

 
[Verse 1]

 I've got a lot of love...
e|---------7---------------7----------------7---------------7-----------|
B|----------------------------------------------------------------------|
G|-----8-9---9-8---8---8-9---9-8---8----8-9---9-8---8---8-9---9-8---8---| [x2]
D|------------------------------------7-----------7---7-----------7-----| 
A|---7-----------7---7-----------7--------------------------------------|
E|----------------------------------------------------------------------|
  
 I wrote a hundred songs...
e|---------7---------------7----------------7---------------7-----------|
B|----------------------------------------------------------------------|
G|-----8-9---9-8---8---8-9---9-8---8----8-9---9-8---8---8-9---9-8---8---| [x2]
D|---9-----------9-------------------7------------7---7-----------7-----| 
A|-------------------7-----------7--------------------------------------|
E|----------------------------------------------------------------------|


[Chorus]                               [End of Chorus]
e|-----------------------------------| |--------------|
B|-----------------------------------| |--------------|
G|--11-11-11-11-11-11-11-11-11-------| |-9-9-9-9-9-9--|
D|--9--9--9--9--9--9--9--9-9---------| |-7-7-7-7-7-7--|
A|-----------------------------------| |--------------|
E|-----------------------------------| |--------------|


[Bridge]

e|---------7--------------7-------------------7--------------7--------| 
B|--------------------------------------------------------------------| 
G|-----8-----8-7-8----8-----8-7-8--------8-----8-7-8----8-----8-7-8---| [x3]
D|---7---7----------7---7--------------9---9----------9---9-----------| 
A|--------------------------------------------------------------------| 
E|--------------------------------------------------------------------| 

                                                [End on]
e|---------7--------------7----------|  |---------------------------|
B|-----------------------------------|  |-----10----10----10----10--|
G|-----8-----8-7-8----8-----8-7-8----|  |--13----13----13----13-----|
D|---7---7----------7---7------------|  |---------------------------|
A|-----------------------------------|  |---------------------------|
E|-----------------------------------|  |---------------------------|


Order: 
[Intro]
[Verse]
[Chorus]
[Verse]
[Chorus]
[Bridge]

            
            
Suggest correction
Creating personal tab
Creating personal tab
You can edit any tab online and save it as your Personal.

You can edit, replace or remove any tab part or add personal notes – all changes will be seen only by you.

Personal tabs can be accessed anytime from any device, even offline.
Learn more »
comments
print report bad tab
guest
You may want to rate the tab now too:
select rating
Wanna post a correction for this tab? Suggest correction