Oops, an error
Loading. Please wait.

Saturday Superhouse Acoustic bass

version 1
version 1

Whole song

Interactive

1,199 views 1 this week
no commentswrite comment
1 2 3 4 5
3 more votes to show rating
add to favorites
×
Save as Personal and add changes to this tab that will be seen only by you. Learn more ›
×
You can save this tab as Personal to edit and correct it or add notes. All changes will be seen only by you. Learn more »
launch autoscroll
font size
0
reset
guitar tuner
edit
Autoscroll
slow
fast
+/-
esc
set tempo
stop
This song is even better in acoustic!! Being a brilliant song anyway this version is 
i play this version with my band so im pretty sure its right! Although i am writing it 
a bass in my hand, just from pure memory!
Tabbed by Simon Kellaway SUPER BASSIST!!!

Intro
Wait weird new guitar intro then listen hard for the bass!
G|--------------------|--------------------|
D|--------------------|--------------------|
A|-44-4-2-4-2-4-2-444-|-44-4-2-4-2-4-2-444-|
D|--------------------|--------------------|

Verse - (ill be sitting on the left side)
This is where it varies from the other version with the open A string
the open A string harmonises with the guitar by the way
G|--------------------|--------------------|------------------|----------|
D|--------------------|--------------------|------------------|----------|
A|-44-4-2-4-2-4-2-444-|-44-4-2-4-2-4-2-444-|-00000000-00000000|----------|
D|--------------------|--------------------|------------------|-44444444-|

G|--------|
D|--------|
A|--------|
D|44444444|

Chorus (if we dont know where we belong)
G|--------------------|--------------------|
D|--------------------|--------------------|
A|---------2-22-22222-|--------------------|
D|0-00-000------------|-44-4-0-4-0-4-0-444-|

Breakdown
G|--------------------------------------------------------|
D|--------------------------------------------------------|
A|-444-2-444-2-444-2-444----------------------------------|
D|-----------------------2-444-2-444-2-444-444-2-0-444-2-0|

            
            
Suggest correction
Creating personal tab
Creating personal tab
You can edit any tab online and save it as your Personal.

You can edit, replace or remove any tab part or add personal notes – all changes will be seen only by you.

Personal tabs can be accessed anytime from any device, even offline.
Learn more »
Give kudos to tab author, rate the tab!
1 2 3 4 5
comments
print report bad tab
guest
Wanna post a correction for this tab? Suggest correction