Oops, an error
Loading. Please wait.

Saturday Superhouse bass

version 2
version 2

Whole song

Interactive

9,757 views 3 this week
1 commentread comment
1 2 3 4 5
x 5
add to favorites
×
Save as Personal and add changes to this tab that will be seen only by you. Learn more ›
×
You can save this tab as Personal to edit and correct it or add notes. All changes will be seen only by you. Learn more »
launch autoscroll
font size
0
reset
guitar tuner
edit
Autoscroll
slow
fast
+/-
esc
set tempo
stop
Intro: Played by guitar then.....

Verse p1:
|-------------------------------------|
|-------------------------------------|
|-------------------------------------|
|-4-4-22-4-4-4-4-4-44-4-22-4-4-4-4-4-4|

Verse p2:
|---------------------------------|
|---------------------------------|
|------------------2-2222222222200|
|-0-000000000000000---------------|

Chorus:
|---------------------------------------------------------------------|
|---------------------------------------------------------------------|
|---------------------------------------------------------------------|
|-0-0000002-2222224-4-22-4-4-4-4-44-0-00000002-2222224-4-22-4-4-4-4-44| x1

|--------------------------------------------------|
|--------------------------------------------------|
|--------------------------------------------------|
|-0-0000002-2222227-77777770-000000-0-0-0002-222222| x1

Solo:
|---------------------------------------------------------------|
|---------------------------------------------------------------|
|---------------------------------------------------------------|
|-Just after second chorus hold-4---------------2---------------| x1
                                12345678123456781234567812345678

|---------------------------------------------------------------|
|---------------------------------------------------------------|
|--------------------------------0------------------------------|
|-4442444244424242444244424442424-22222222222222226660-6660-6664| x1

Ending:
|-----------|
|-----------|
|-----------|
|-4////////1|

End.

Guitar intro
Verse p1 x2
(singing Kicks in after x1)
Verse p2 x1
Verse p1 x1
Verse p2 x1

Chorus

Guitar intro bit
Verse p1 x2
Verse p2 x1
Verse p1 X1
Verse p2 x1

Chorus

Solo
Guitar intro bit

Chorus x2
after keep on doing |-0-0000002-2222224-4-224-4-44| x6
Guitar intro bit

Ending

This is another great song by biffy and i think this around 98% correct, if you know the 
well then yu can use the notes but with your won rythm, thanks a bunch and enjoy, 
x

            
            
Suggest correction
Creating personal tab
Creating personal tab
You can edit any tab online and save it as your Personal.

You can edit, replace or remove any tab part or add personal notes – all changes will be seen only by you.

Personal tabs can be accessed anytime from any device, even offline.
Learn more »
comments
print report bad tab
1 comment total.
0 reply
Fred-the-pirate 10 Aug 29, 2007 03:19 AM

Nice thanks. Hopefully my band can play this all now. Awesome tab

guest
Wanna post a correction for this tab? Suggest correction