Oops, an error
Loading. Please wait.

Saturday Superhouse tab

version 2
version 2

Whole song

Interactive

42,460 views 24 this week
8 commentsread comments
1 2 3 4 5
x 16
add to favorites
×
Save as Personal and add changes to this tab that will be seen only by you. Learn more ›
×
You can save this tab as Personal to edit and correct it or add notes. All changes will be seen only by you. Learn more »
launch autoscroll
font size
0
reset
how to read this tab
guitar tuner
edit
Autoscroll
slow
fast
+/-
esc
set tempo
stop
Biffy Clyro - Saturday Superhouse
Tabbed by: David H

Rather nice new single from the Scots

Intro
e|-00--0--0-0-----00-0-0--0-0-0----00-0-0--0-0-0----------------|
B|-55--5--5-5-----55-5-5--2-2-2----55-5-5--2-2-2----------------|
G|-66--6--6-6-----66-6-6—4b(6)(6)--66-6-6—4b(6)(6)--------------|
D|--------------44--4-4----------44--4-4------------------------|
A|--------------44--4-4----------44--4-4------------------------|
D|--------------44--4-4----------44--4-4------------------------|

Verse  - play twice
e|-----00-0-0--0-0-0----00-0-0--0-0-0----------------|
B|-----55-5-5--2-2-2----55-5-5--2-2-2----------------|
G|-----66-6-6—4b(6)(4)--66-6-6—4b(6)(6)--------------|
D|---44--4-4----------44--4-4------------------------|
A|---44--4-4----------44--4-4------------------------|
D|---44--4-4----------44--4-4------------------------|

e|------------------------------------------------|
B|------------------------------------------------|
G|-2--2-2-2-2-2-2-2------4--4-4-4-4-4-4-4---2-2-2-|
D|-0-—0-0-0-0-0-0-0------4--4-4-4-4-4-4-4---2-2-2-|
A|-0—-0-0-0-0-0-0-0------2--2-2-2-2-2-2-2---0-0-0-|
D|-0—-0-0-0-0-0-0-0-------------------------------|
Listen to song for correct number of times

Chorus - open E not necessary but helps to keep bright tone with distortion
e|-----------------------0-0-0-0-0-0-0-------|
B|-----------------------x-x-x-x-x-x-x-------|        x2
G|-2-2-2-2-2--4-4-4-4-4--6-6-6-6-6-6-6-------|
D|-0-0-0-0-0--2-2-2-2-2--4-4-4-4-4-4-4-------|
A|-0-0-0-0-0--2-2-2-2-2--4-4-4-4-4-4-4-------|
D|-0-0-0-0-0--2-2-2-2-2--4-4-4-4-4-4-4-------|

then
e|-------------------------------------------------------------------|
B|-------------------------------------------------------------------|
G|-2-2-2-2-2--4-4-4-4-4--9-9-9-9-9--2-2-2-2-2--2-2-2-2---------------|
D|-0-0-0-0-0--2-2-2-2-2--7-7-7-7-7--0-0-0-0-0--0-0-0-0--2-2-2-2-2--4-|
A|-0-0-0-0-0--2-2-2-2-2--7-7-7-7-7--0-0-0-0-0--0-0-0-0--2-2-2-2-2--4-|
D|-0-0-0-0-0--2-2-2-2-2--7-7-7-7-7--0-0-0-0-0--0-0-0-0--2-2-2-2-2--4-|

Pre-verse
e|-00--0--0-0-|
B|-55--5--5-5-|
G|-66--6--6-6-|
D|------------|
A|------------|
D|------------|

Repeat Verse

Repeat Chorus

solo
e|----------------------------------------------------------------|
B|----------------------------------------------------------------|
G|---------4-6--4--------------4----------1---2-4--2-1------------|
D|-4--6-7---------7--6-4--6-7----4---2--4---------------4-2-------|
A|----------------------------------------------------------------|
D|----------------------------------------------------------------| x2

On 2nd time, another guitar plays with the bass part on top (live solo as well)
e|------------------------------------------------------------------|
B|------------------------------------------------------------------|
G|---------------------1-------------------------1-2-4--------------|
D|-444-2-444-2-444-2-4---4-2-444-2-444-2-444-2-4-------2h4-2—2h4p4--|
A|------------------------------------------------------------------|
D|------------------------------------------------------------------|

Pre-Chorus
e|----------------------------------00-0-0----------|
B|----------------------------------55-5-5----------|
G|----------------------------------66-6-6----------|
D|-6-4-6-0--6-4-6-0--6-4-6-4\-----------------------|
A|-6-4-6-0--6-4-6-0--6-4-6-4\-----------------------|
E|-6-4-6-0--6-4-6-0--6-4-6-4\-----------------------|

Repeat chorus x2

(End 1st chorus with just)
e|----------------|
B|----------------|
G|-6-6-6-6---etc--|
D|-4-4-4-4--------|
A|-4-4-4-4--------|
D|-4-4-4-4--------|
(The 2nd chorus has another very faint guitar part which I THINK uses something close to 
play around with these)
e|------------16-17--16-17------------------------------------------|
B|-17--17-17-----------------17/19-19—17/19-19-17/19-19—17/19-19----|
G|------------------------------------------------------------------|
D|-14--14-14--------------------------------------------------------|
A|------------------------------------------------------------------|
D|------------------------------------------------------------------|
(End the last chorus with)
e|-------------------------00-00--00--0----|
B|-------------------------55-55--55--5----|
G|-2-2-2-2-2--4-4-4-4-4----66-66--66--6----| x3
D|-0-0-0-0-0--2-2-2-2-2--44-44--44--44--4--|
A|-0-0-0-0-0--2-2-2-2-2--44-44--44--44--4--|
D|-0-0-0-0-0--2-2-2-2-2--44-44--44--44--4--|

Outro
e|---00--00--00--0------------------|
B|---55--55--55--5------------------|        x2
G|---66-—66--66--6------------------|
D|-4--44--44--44--4-----------------|
A|-4--44--44--44--4-----------------|
D|-4--44--44--44--4-----------------|

e|-00--00--0-0---------------|
B|-55--55--5-5---------------|
G|-66--66—-6-6---------------|
D|-------------------4--\1---|
A|-------------------4--\1---|
D|-------------------4--\1---|

Enjoy

Key
b (*) = bend to (note)
/ = slide up
\ = slide down

            
            
Suggest correction
Creating personal tab
Creating personal tab
You can edit any tab online and save it as your Personal.

You can edit, replace or remove any tab part or add personal notes – all changes will be seen only by you.

Personal tabs can be accessed anytime from any device, even offline.
Learn more »
comments
print report bad tab
8 comments total. Showing first comments.
+1 reply
FreedomFighter 102 Mar 28, 2007 11:20 AM

Cracking tab. Bang on! :D

0 reply
goodsum 575 Apr 29, 2007 06:46 AM

nice tab. not sure if 'nice' is a good word for this song tho lol

0 reply
neoamir 1,063 May 01, 2007 02:42 AM

Kickass tab

guest
You may want to rate the tab now too:
select rating
Wanna post a correction for this tab? Suggest correction