Oops, an error
Loading. Please wait.

Sounds Like Balloons Bass Tab

version 1
version 1

Whole song

Interactive

4,702 views 15 this week
2 commentsread comments
1 2 3 4 5
x 7
add to favorites
launch autoscroll
font size
0
reset
guitar tuner
Autoscroll
slow
fast
+/-
esc
set tempo
stop
Help us to improve Ultimate-Guitar.com Take our survey!
×
Author
-------------------------------------------------------------------------------
Tabbed by: WarbyWasTaken

Tuning: Standard


I only started learning bass a week ago and this is my first tab so I apologise if 
anything's wrong/the layouts messy!


Intro:

G|-----------------------------------------------------------------|
D|-----------------------------------------------------------------|
A|-13---11-13---11--13---11-13---11--13---11-13---11--13---11-13---|
E|-----------------------------------------------------------------|


Verse 1:

G|--------------------------------------------------------------|
D|--------------------------------------------------------------|
A|-11--13---11-13---11--13---11-13---11--9---8-9---8--6---4-6---| x2
E|--------------------------------------------------------------|


Pre-Chorus 1:

G|-------------------|
D|-------------------|
A|-13--13--13---\4---| x2
E|-------------------|


Chorus:

G|---------------------------------------------------------------------------------------------|
D|---------------------------------------------------------------------------------------------|
A|-4-4-4-4--6666--8888--9-9-9-9--9-9-9-9--11-11-11-11--11-11-11-11--13-13-13-13--13-13-13-13---|
E|---------------------------------------------------------------------------------------------|

G|------------------------------------------------------------------------------------|
D|------------------------------------------------------------------------------------|
A|4-4-4-4--6666--8888--9-9-9-9--9-9-9-9--11-11-11-11--11-11-11-11--4-4-4-4--4-4-4-4---|
E|------------------------------------------------------------------------------------|


Verse 2:

G|---------------------------------------------------------------------|
D|---------------------------------------------------------------------|
A|-11--13-13-13---11-13-13-13---11--13-13-13---11-13-13-13---11--9-9-9-|
E|---------------------------------------------------------------------|

---------------------------------|
---------------------------------|
--8-9-9-9---8--6-6-6---4-6-6-6---| x2
---------------------------------|


Pre-Chorus 2:

G|------------------------------------|
D|------------------------------------|
A|-13--13--13---11-11-11--9-9-9-------| x2
E|------------------------------------|


Chorus (See above)


Bridge:

G|------------------------------------------------------------------------------------------|
D|------------------------------------------------------------------------------------------|
A|-6-6-6-6--6-6-6-6--13-13-13-13--13-13-13-13--11-11-11-11--11-11-11-11--9-9-9-9--9-9-9-9---| x4
E|------------------------------------------------------------------------------------------|


Chorus (See above)


Outro

G|---------------------|
D|---------------------|
A|-11-13------11--13---| Listen carefully to fit correctly
E|---------------------|


| /  slide up
| \  slide down
| h  hammer-on
| p  pull-off
| ~  vibrato
| +  harmonic
| x  Mute note
===============================================================================
Suggest correction
comments
print report bad tab
2 comments total.
+1 reply
punkguitarist01 282 Feb 15, 2013 09:04 AM

Apparently I'm not allowed to post my version of this tab because...

"It's only got a few differences to version 1 - post them as corrections."

So here are a list of the corrections/the way I play it -

I think the intro is just this -
G|------------------|
D|------------------|
A|-11—-13----11-13--| x2
E|------------------|

First pre-chorus I think is this -
G|-------------------|
D|-------------------|
A|-11--13--13--13-\--|
E|-------------------|

G|-------------------|
D|-------------------|
A|-13--13--13-\------|
E|-------------------|

Verse 2 should be like this strumming wise I think -
G|---------------------------------------------------------------------------------|
D|---------------------------------------------------------------------------------|
A|-11—-13—13—13-13-13-13---11-13-13-13-----11--13-13-13-13-13-13---11-13-13-13-----|
E|---------------------------------------------------------------------------------|

G|--------------------------------------------------------------------------------|
D|--------------------------------------------------------------------------------|
A|-11—-9—9—9-9-9-9---8-9-9-9---8--6-6-6-6-6-6---4-6-6-6-6-6--11-13-13--11-13-13-| x2
E|--------------------------------------------------------------------------------|

1:41 - Pre chorus is like this (not positive on the last note)
G|------------------------------------|
D|------------------------------------|
A|-13--13--13---11-11-11--13-13-13----|
E|------------------------------------|

G|-----------------------|
D|-----------------------|
A|-13--13--13---11---6---|
E|-----------------------|

And the outro is this -
G|---------------------|
D|---------------------|
A|-11-13--8-9---11--13-|
E|---------------------|

I also had the strumming patterns down and correct for the rest of the song but if UG don't want to accept it then I'll just keep it to myself.

0 reply
punkguitarist01 282 Feb 15, 2013 09:06 AM

Just to point out the a€" shouldn't be there, UG doesn't agree with my text editor and I can't edit my comment.

guest
You may want to rate the tab now too:
select rating
Wanna post a correction for this tab? Suggest correction