Oops, an error
Loading. Please wait.

Sounds Like Balloons Tab

version 1
version 1

Whole song

Interactive

18,283 views 15 this week
5 commentsread comments
1 2 3 4 5
x 9
add to favorites
launch autoscroll
font size
0
reset
how to read this tab
guitar tuner
×
Best way to learn
"Sounds Like Balloons"
Autoscroll
slow
fast
+/-
esc
set tempo
stop
Author
Difficulty
Tuning
  follow
intermediate
C# G# C# F# A# D#
[Intro]
D#|--------------------------------------------|
A#|--------------------------------------------|
F#|-----4-----------4--------4-----------4-----|  (play 2 times palm muted)
C#|--------4--4--5--------------4--4--5--------|  (then 2 times not)
G#|--2-----------------0--2-----------------0--|
C#|--------------------------------------------|

[Verse]
D#|--------------------------------------------------------------------------|
A#|--------------------------------------------------------------------------|
F#|-----4-----------4--------4-----------4--------4-----------4--------4-----|
C#|--------4--4--5--------------4--4--5--------------4--4--5--------------4--|
G#|--2-----------------0--2-----------------0--2-----------------0--2--------|
C#|--------------------------------------------------------------------------|

D#|-----------------------------------------------------|
A#|-----------------------------------------------------|
F#|-----4--------4-----------4--------4-----------4-----|
C#|-4--5--------------4--4--5--------------4--4--5------|
G#|--------0--------------------------------------------|
C#|-----------5-----------------4--5-----------------4--|

D#|--------------------------------------------|
A#|--------------------------------------------|
F#|-----4-----------4--------4-----------4-----|   (x2)
C#|--------4--4--5--------------4--4--5--------|
G#|-----------------------------------------0--|
C#|--2-----------------0--2--------------------|

[Pre-Chorus]
D#|---------------------------------------------------|
A#|---------------------------------------------------|
F#|--4--4--4------------------4--4--4-----------------|
C#|--4--4--4--piano interlude-4--4--4-----------------|(piano interlude)
G#|--2--2--2------------------2--2--2-----------------|
C#|---------------------------------------------------|

[Chorus]
D#|--------------------------------------------------------------------------|
A#|--------------------------------------------------------------------------|
F#|--------------------------------------------------------------------------|
C#|--0--0--0--0--0--0----2--2--2--2--4--4--4--4----5--5--5--5--5--5--5--5--5-|
G#|--0--0--0--0--0--0----2--2--2--2--4--4--4--4----5--5--5--5--5--5--5--5--5-|
C#|--0--0--0--0--0--0----2--2--2--2--4--4--4--4----5--5--5--5--5--5--5--5--5-|

D#|---------------------------------------------------------------------------|
A#|---------------------------------------------------------------------------|
F#|---------------------------------------------------------------------------|
C#|--7--7--7--7--7--7--7--7--7--7--7--7----9--9--9--9--9--9--9--9--9--9--9--9-|
G#|--7--7--7--7--7--7--7--7--7--7--7--7----9--9--9--9--9--9--9--9--9--9--9--9-|
C#|--7--7--7--7--7--7--7--7--7--7--7--7----9--9--9--9--9--9--9--9--9--9--9--9-|

D#|--------------------------------------------------------------------------|
A#|--------------------------------------------------------------------------|
F#|--------------------------------------------------------------------------|
C#|--0--0--0--0--0--0----2--2--2--2--4--4--4--4----5--5--5--5--5--5--5--5--5-|
G#|--0--0--0--0--0--0----2--2--2--2--4--4--4--4----5--5--5--5--5--5--5--5--5-|
C#|--0--0--0--0--0--0----2--2--2--2--4--4--4--4----5--5--5--5--5--5--5--5--5-|

D#|---------------------------------------------------------------------------|
A#|---------------------------------------------------------------------------|
F#|---------------------------------------------------------------------------|
C#|--7--7--7--7--7--7--7--7--7--7--7--7---0--0--0--0--0--0--0--0--0--0--0--0--|
G#|--7--7--7--7--7--7--7--7--7--7--7--7---0--0--0--0--0--0--0--0--0--0--0--0--|
C#|--7--7--7--7--7--7--7--7--7--7--7--7---0--0--0--0--0--0--0--0--0--0--0--0--|

[Verse]
D#|--------------------------------------------------------------------------|
A#|--------------------------------------------------------------------------|
F#|-----4-----------4--------4-----------4--------4-----------4--------4-----|
C#|--------4--4--5--------------4--4--5--------------4--4--5--------------4--|
G#|--2-----------------0--2-----------------0--2-----------------0--2--------|
C#|--------------------------------------------------------------------------|

D#|-----------------------------------------------------|
A#|-----------------------------------------------------|
F#|-----4--------4-----------4--------4-----------4-----|
C#|-4--5--------------4--4--5--------------4--4--5------|
G#|--------0--------------------------------------------|
C#|-----------5-----------------4--5-----------------4--|

D#|--------------------------------------------|
A#|--------------------------------------------|
F#|-----4-----------4--------4-----------4-----|   (x2)
C#|--------4--4--5--------------4--4--5--------|
G#|-----------------------------------------0--|
C#|--2-----------------0--2--------------------|

(Different pre-chorus)
D#|------------------------------------|
A#|------------------------------------|
F#|--4--4--4--4------7--7--7--9--9--9--|
C#|--4--4--4--4------7--7--7--9--9--9--|
G#|--2--2--2--2------5--5--5--7--7--7--|
C#|------------------------------------|

[Chorus]
D#|--------------------------------------------------------------------------|
A#|--------------------------------------------------------------------------|
F#|--------------------------------------------------------------------------|
C#|--0--0--0--0--0--0----2--2--2--2--4--4--4--4----5--5--5--5--5--5--5--5--5-|
G#|--0--0--0--0--0--0----2--2--2--2--4--4--4--4----5--5--5--5--5--5--5--5--5-|
C#|--0--0--0--0--0--0----2--2--2--2--4--4--4--4----5--5--5--5--5--5--5--5--5-|

D#|---------------------------------------------------------------------------|
A#|---------------------------------------------------------------------------|
F#|---------------------------------------------------------------------------|
C#|--7--7--7--7--7--7--7--7--7--7--7--7----9--9--9--9--9--9--9--9--9--9--9--9-|
G#|--7--7--7--7--7--7--7--7--7--7--7--7----9--9--9--9--9--9--9--9--9--9--9--9-|
C#|--7--7--7--7--7--7--7--7--7--7--7--7----9--9--9--9--9--9--9--9--9--9--9--9-|

D#|--------------------------------------------------------------------------|
A#|--------------------------------------------------------------------------|
F#|--------------------------------------------------------------------------|
C#|--0--0--0--0--0--0----2--2--2--2--4--4--4--4----5--5--5--5--5--5--5--5--5-|
G#|--0--0--0--0--0--0----2--2--2--2--4--4--4--4----5--5--5--5--5--5--5--5--5-|
C#|--0--0--0--0--0--0----2--2--2--2--4--4--4--4----5--5--5--5--5--5--5--5--5-|

D#|---------------------------------------------------------------------------|
A#|---------------------------------------------------------------------------|
F#|---------------------------------------------------------------------------|
C#|--7--7--7--7--7--7--7--7--7--7--7--7---0--0--0--0--0--0--0--0--0--0--0--0--|
G#|--7--7--7--7--7--7--7--7--7--7--7--7---0--0--0--0--0--0--0--0--0--0--0--0--|
C#|--7--7--7--7--7--7--7--7--7--7--7--7---0--0--0--0--0--0--0--0--0--0--0--0--|

[Bridge] 
(x2)
D#|---------------------------------------------------------------------------|
A#|---------------------------------------------------------------------------|
F#|---------------------------------------------------------------------------|
C#|--2--2--2--2--2--2--2--2--2--2--2--2----9--9--9--9--9--9--9--9--9--9--9--9-|
G#|--2--2--2--2--2--2--2--2--2--2--2--2----9--9--9--9--9--9--9--9--9--9--9--9-|
C#|--2--2--2--2--2--2--2--2--2--2--2--2----9--9--9--9--9--9--9--9--9--9--9--9-|

D#|---------------------------------------------------------------------------|
A#|---------------------------------------------------------------------------|
F#|---------------------------------------------------------------------------|
C#|--0--0--0--0--0--0--0--0--0--0--0--0----5--5--5--5--5--5--5--5--5--5--5--5-|
G#|--0--0--0--0--0--0--0--0--0--0--0--0----5--5--5--5--5--5--5--5--5--5--5--5-|
C#|--0--0--0--0--0--0--0--0--0--0--0--0----5--5--5--5--5--5--5--5--5--5--5--5-|

[Solo-ish bit]
D#|---------------------------------------------------------------------------|
A#|------17----------17----------17----------17----------15----------15-------|
F#|--16------16--16------16--16------16--16------16--16------16--16------16---|
C#|---------------------------------------------------------------------------|
G#|---------------------------------------------------------------------------|
C#|---------------------------------------------------------------------------|

D#|------------------------------------------------------------------------------|
A#|---15----------15------------15----------15----------15----------15-----------|
F#|-16-----16--16-------11--11------11--11------11--11------11--11------12--12---|
C#|------------------------------------------------------------------------------|
G#|------------------------------------------------------------------------------|
C#|------------------------------------------------------------------------------|

D#|----------------------------------------|
A#|-15----------15----------15----------15-|
F#|----12--12------12--12------12--12------|
C#|----------------------------------------|  (x2)
G#|----------------------------------------|
C#|----------------------------------------|

[Chorus]
D#|--------------------------------------------------------------------------|
A#|--------------------------------------------------------------------------|
F#|--------------------------------------------------------------------------|
C#|--0--0--0--0--0--0----2--2--2--2--4--4--4--4----5--5--5--5--5--5--5--5--5-|
G#|--0--0--0--0--0--0----2--2--2--2--4--4--4--4----5--5--5--5--5--5--5--5--5-|
C#|--0--0--0--0--0--0----2--2--2--2--4--4--4--4----5--5--5--5--5--5--5--5--5-|

D#|---------------------------------------------------------------------------|
A#|---------------------------------------------------------------------------|
F#|---------------------------------------------------------------------------|
C#|--7--7--7--7--7--7--7--7--7--7--7--7----9--9--9--9--9--9--9--9--9--9--9--9-|
G#|--7--7--7--7--7--7--7--7--7--7--7--7----9--9--9--9--9--9--9--9--9--9--9--9-|
C#|--7--7--7--7--7--7--7--7--7--7--7--7----9--9--9--9--9--9--9--9--9--9--9--9-|

D#|--------------------------------------------------------------------------|
A#|--------------------------------------------------------------------------|
F#|--------------------------------------------------------------------------|
C#|--0--0--0--0--0--0----2--2--2--2--4--4--4--4----5--5--5--5--5--5--5--5--5-|
G#|--0--0--0--0--0--0----2--2--2--2--4--4--4--4----5--5--5--5--5--5--5--5--5-|
C#|--0--0--0--0--0--0----2--2--2--2--4--4--4--4----5--5--5--5--5--5--5--5--5-|

D#|---------------------------------------------------------------------------|
A#|---------------------------------------------------------------------------|
F#|---------------------------------------------------------------------------|
C#|--7--7--7--7--7--7--7--7--7--7--7--7---0--0--0--0--0--0--0--0--0--0--0--0--|
G#|--7--7--7--7--7--7--7--7--7--7--7--7---0--0--0--0--0--0--0--0--0--0--0--0--|
C#|--7--7--7--7--7--7--7--7--7--7--7--7---0--0--0--0--0--0--0--0--0--0--0--0--|

[Outro]
D#|---------------------|
A#|---------------------|
F#|-----4-----------4-4-|
C#|--------4--5--7----4-|
G#|--2----------------2-|
C#|---------------------|
Suggest correction
comments
print report bad tab
5 comments total. Showing first comments.
0 reply
ddrillingcourt 31 Feb 03, 2013 08:06 AM

Think Si does the Pre-Chorus higher up the Fret, but otherwise great!

-1 reply
sonicboombox 222 Feb 03, 2013 06:23 PM

Ya can do the piano bit in the pre chorus like this

---------------------------------------------
---------------------------------------------
-4-4-4-4-----4------4---7-7-7-7-----7------7-
-4-4-4-4---4------4-----7-7-7-7---7------7---
-2-2-2-2-2------2-------5-5-5-5-5------5-----
---------------------------------------------

0 reply
boudieboom 142 Feb 06, 2013 02:15 AM

You can also play the fast part in the intro and the verses like this, i Got the feeling that Simon plays it like that.

eb|--------------------------------------------|
Bb|-----------------0--------------------0-----|
Gb|-----4------0h2------------4-----0h2--------|
Db|--------4--------------------4--------------|
Ab|--2-----------------0--2--------------------|
C#|--------------------------------------------|

Just like that the whole time. Further your tab is good!

guest
You may want to rate the tab now too:
select rating
Wanna post a correction for this tab? Suggest correction