Oops, an error
Loading. Please wait.

Stingin Belle Acoustic Tab

8,723 views 12 this week
no commentswrite comment
1 2 3 4 5
accurate
x 5
add to favorites
launch autoscroll
font size
0
reset
how to read this tab
guitar tuner
Tab Pro tools
  • play this tab
  • loop segment
  • change instrument
  • show fretboard
  • metronome
Autoscroll
slow
fast
+/-
esc
set tempo
stop
Contributor
Difficulty
Tuning
novice
D# G# C# F# A# D#
-------------------------------------------------------------------------------
                             Stingin' Belle Acoustic - Biffy Clyro
-------------------------------------------------------------------------------
Tabbed by: Miki
E-mail: miki.ross@gmail.com

Tuning: Half Step Down


Verse

      Fig. 1       Fig. 2       Fig. 3  E

d#|-0--0--0--0----0--0--0--0----0--0----0--------------------------------------|
A#|-2--3--2--0----2--3--2--0----2--3----0--------------------------------------|
F#|-2--2--2--2----2--2--2--2----2--2----1--------------------------------------|
C#|-2--2--2--2----0--0--0--0----0--0----2--------------------------------------|
G#|-0--0--0--0----2--2--2--2------------2--------------------------------------|
D#|-------------------------------------0--------------------------------------|


Chorus

   Asus  A  F#m    E

d#|-0----0----0----0-----------------------------------------------------------------|
A#|-3----2----0----0-----------------------------------------------------------------|
F#|-2----2----2----1-----------------------------------------------------------------|
C#|-0----2----4----2-----------------------------------------------------------------|
G#|------0----4----2-----------------------------------------------------------------|
D#|----------------0-----------------------------------------------------------------|




Intro:  Fig. 1 (x2)

             Fig. 1
You say love, I say killing time
            Fig. 2
What's mine is yours, and yours is mine
          Fig. 3                    E
You make me laugh, I make you cry
          Fig. 1
I guess that rhymes...

              Fig. 1
You're contained by doors and walls
             Fig. 2
I'm contained by your control
         Fig. 3                     E
Your overthrown, but under warn
      Fig. 1
I told you so...

    Asus                          A
We're singing for the stingin' belle
    Asus                  A
She's clearly lost her way
    Asus                F#m
Craving all the simple times
   E                    A
Inside her tragic game

             Fig. 1
Grow some balls, and speak your mind
            Fig. 2
You think you're cool like a porcupine
      Fig. 3                               E
You're more like doves, that are taking flight
        Fig. 1
The sky is mine.

  Asus                          A
We're singing for the stingin' belle
    Asus                  A
She's clearly lost her way
    Asus                F#m
Craving all the simple times
   E                    A
Inside her tragic game

 Asus                          A
We're singing for the stingin' belle
    Asus                  A
She's clearly lost her way
    Asus                F#m
Craving all the simple times
   E                    A
Inside her tragic game

Bridge:


d#|-------------------------------------------------------------------------------|
A#|-------------------------------------------------------------------------------|
F#|--9--9--9--9--9--9--9--9--9--9--9--9--9--9--9--9--9--9--9--9--9--9--9--9-------|
C#|--11-11-11-11-11-11-12-12-12-12-12-12-13-13-13-13-13-13-12-12-12-12-12-12------|
G#|--0--0--0--0--0--0--0--0--0--0--0--0--0--0--0--0--0--0--0--0--0--0--0--0-------|
D#|-------------------------------------------------------------------------------|


d#|--0--0--0--0-------------------------------------------------------------------|
A#|--5--5--10-10------------------------------------------------------------------|
F#|--6--6--11-11----9-----------7--6---9----------7--6--11-11-11-13-13-13---------|
C#|--7--7--12-12----10/11-(x3)--9--7---10/11-(x3)-9--7---12-12-12-14-14-14--------|
G#|--0--0---0--0----0-----------0--0---0----------0--0--0--0--0--0--0--0----------|
D#|-------------------------------------------------------------------------------|


           C#m
We're singing for the stingin' belle
         D
We're singing for the stingin' belle
           C#m
We're singing for the stingin' belle
         D
We're singing for the stingin' belle

          Esus
We're singing for the stingin' belle
          Esus
We're singing for the stingin' belle
          Esus
We're singing for the stingin' belle
          Esus
We're singing for the stingin' belle



Thank you and ENJOY!
comments
print report bad tab
I want to post or [tab]
guest
You may want to rate the tab now too:
select rating
Please do not post tabs as comments. Select "correction" instead!