Oops, an error
Loading. Please wait.

Stress On The Sky tab

version 1
version 1

Whole song

Interactive

2,627 views 1 this week
3 commentsread comments
1 2 3 4 5
x 5
add to favorites
×
Save as Personal and add changes to this tab that will be seen only by you. Learn more ›
×
You can save this tab as Personal to edit and correct it or add notes. All changes will be seen only by you. Learn more »
launch autoscroll
font size
0
reset
how to read this tab
guitar tuner
edit
Autoscroll
slow
fast
+/-
esc
set tempo
stop
---------------------------------------------------------------------
                     Biffy Clyro= Stress on the Sky
---------------------------------------------------------------------
      
Hey again.i just worked this one out this morning.Its track 11 on the album.
its one of their continually changing hard to tab ones.SO ANOYING TO TAB!neway.
its pretty straight forward.have fun(tombuttcrunch116@hotmail.com)

intro

e|-----------------------------------------------------------------
b|-----------------------------------------------------------------
g|---7-------5-5-5-11/12-11-9-9-9-----14---------------------------
d|-----7-----------------------------------------------------------
a|--------5--3-3-3--9/10-9--7-7-7-----12---------------------------
D|-----------------------------------------------------------------

e|-----------------------------------------------------------------
b|-----------------------------------------------------------------
g|---7-7-7--5-5-5-11/12-11-9-9-9-----14----------------------------
d|-----------------------------------------------(x a lot!)--------
a|---5-5-5--3-3-3--9/10-9--7-7-7-----12----------------------------
D|-----------------------------------------------------------------

0:18
e|-----------------------------------------------------------------
b|-----------------------------------------------------------------
g|-----------------------------------------------------------------
d|---0-------------------------------------------------------------
a|---0---------------(keep playing that note over and over again)--
D|---0-------------------------------------------------------------
w/distortion

0:35
Gtr1
e|-----------------------------------------------------------------
b|-----------------------------------------------------------------
g|---10-1010-10-1010-101010-10101010101010101010\7-7-7-14141414----
d|-----------------------------------------------------------------
a|---8--8-8--8--8-8--8-8-8--8-8-8-8-8-8-8-8-8-8-\5-5-5-12121212----
D|-----------------------------------------------------------------

Gtr2
e|-----------------------------------------------------------------
b|-----------------------------------------------------------------
g|-----------------------------------------------------------------
d|---3-3-3-3-3-3-3-3-3-3-3-3-3-3-3-3-0-0-7-7-7-7-------------------
a|---3-3-3-3-3-3-3-3-3-3-3-3-3-3-3-3-0-0-7-7-7-7-------------------
D|---3-3-3-3-3-3-3-3-3-3-3-3-3-3-3-3-0-0-7-7-7-7-------------------

0:55
e|-----------------------------------------------------------------
b|-----------------------------------------------------------------
g|---9-9-9-9-9-9-9-9-1010101010101010-1717171717171717\14141414----
d|-----------------------------------------------------------------
a|---7-7-7-7-7-7-7-7-8-8-8-8-8-8-8-8--1515151515151515\12121212----
D|-----------------------------------------------------------------

e|-----------------------------------------------------------------
b|-----------------------------------------------------------------
g|---9-9-9-9-9-9-9-9-1010101010101010-1717171717171717-191919191919
d|-----------------------------------------------------------------
a|---7-7-7-7-7-7-7-7-8-8-8-8-8-8-8-8--1515151515151515-171717171717
D|-----------------------------------------------------------------

e|-----------------------------------------------------------------
b|---17-18-17------------------------------------------------------
g|--------------9-9-9-9-9-9-9-9-1010101010101010-------------------
d|---14-15-14------------------------------------------------------
a|--------------7-7-7-7-7-7-7-7-8-8-8-8-8-8-8-8--------------------
D|-----------------------------------------------------------------

pre-verse
e|-----------------------------------------------------------------
b|-----------------------------------------------------------------
g|-----------------------------------------------------------------
d|-------3-0-------3-2------0-2----0---3---2-----------------------
a|---0-0-------0-0------0-0------0---0---0-------------------------
D|-----------------------------------------------------------------

verse(bass)

half way thorugh the verse the guitaring comes in:
e|-----------------------------------------------------------------
b|-----------------------------------------------------------------
g|---7-6------7--7/-9--10--14/15\14---7-6-------7-7/9-10--14-15-14-
d|-------8-7-------------------------------8-7---------------------
a|------------5--5/-7--8---12/13\12-------------5-5/7--8--12-13-12-
D|-----------------------------------------------------------------

e|-----------------------------------------------------------------
b|-----------------------------------------------------------------
g|---7-6-9-7-------------------------------------------------------
d|-----------------------------------------------------------------
a|-----------------------------------------------------------------
D|-----------------------------------------------------------------

e|-----------------------------------------------------------------
b|-----------------------------------------------------------------
g|-----------------------------------------------------------------
d|-----------------------------------------------------------------
a|---2-2-2-2-2-2-2-2-2-2-2-2-2-2-2-2-p0----------------------------
D|---2-2-2-2-2-2-2-2-2-2-2-2-2-2-2-2-p0----------------------------

chorus
e|-----------------------------------------------------------------
b|-----------------------------------------------------------------
g|---10-1010-10-1010-101010-10101010101010101010\7-7-7-14141414----
d|-----------------------------------------------------------------
a|---8--8-8--8--8-8--8-8-8--8-8-8-8-8-8-8-8-8-8-\5-5-5-12121212----
D|-----------------------------------------------------------------

Gtr2
e|-----------------------------------------------------------------
b|-----------------------------------------------------------------
g|-----------------------------------------------------------------
d|---3-3-3-3-3-3-3-3-3-3-3-3-3-3-3-3-0-0-7-7-7-7-------------------
a|---3-3-3-3-3-3-3-3-3-3-3-3-3-3-3-3-0-0-7-7-7-7-------------------
D|---3-3-3-3-3-3-3-3-3-3-3-3-3-3-3-3-0-0-7-7-7-7-------------------


e|-----------------------------------------------------------------
b|-----------------------------------------------------------------
g|---9-9-9-9-9-9-9-9-1010101010101010-1717171717171717\14141414----
d|-----------------------------------------------------------------
a|---7-7-7-7-7-7-7-7-8-8-8-8-8-8-8-8--1515151515151515\12121212----
D|-----------------------------------------------------------------

e|-----------------------------------------------------------------
b|-----------------------------------------------------------------
g|---9-9-9-9-9-9-9-9-1010101010101010-17-14-15-17-14-15-17-14-15-17
d|-----------------------------------------------------------------
a|---7-7-7-7-7-7-7-7-8-8-8-8-8-8-8-8--15-12-13-15-12-13-15-12-13-15
D|-----------------------------------------------------------------

e|-----------------------------------------------------------------
b|-----------------------------------------------------------------
g|---14-15---9-9-9-9-9-9-9-9-1010101010101010----------------------
d|-----------------------------------------------------------------
a|---12-13---7-7-7-7-7-7-7-7-8-8-8-8-8-8-8-8-----------------------
D|-----------------------------------------------------------------

fill
e|-----------------------------------------------------------------
b|-----------------------------------------------------------------
g|---101010101010101012121212-9-9-9--------------------------------
d|--------------------------------------------------(x4)-----------
a|---8-8-8-8-8-8-8-8-10101010-7-7-7--------------------------------
D|-----------------------------------------------------------------

e|-----------------------------------------------------------------
b|-----------------------------------------------------------------
g|---14-14-14-14-14-14-14-14/-15-15-15/-17-17-17-------------------
d|----------------------------------------------------------(x2)---
a|---12-12-12-12-12-12-12-12/-13-13-13/-15-15-15-------------------
D|-----------------------------------------------------------------

e|-----------------------------------------------------------------
b|-----------------------------------------------------------------
g|---17-17-17-17-17-17-17-17-15-15-15-15-15-15-15-15---------------
d|----------------------------------------------------(x2)---------
a|---15-15-15-15-15-15-15-15-13-13-13-13-13-13-13-13---------------
D|-----------------------------------------------------------------

(ooooh)
e|-----------------------------------------------------------------
b|-----------------------------------------------------------------
g|---14-15-17--14-15-17--17-15--17-15------------------------------
d|-----------------------------------------------------------------
a|---12-13-15--12-13-15--15-13--15-13------------------------------
D|-----------------------------------------------------------------

(just before end of second ooooh)
e|---1---1---1-----5----5-----5------10-----10------10-------------
b|-----3---3---------6-----6-------------10------10----------------
g|-----------------------------------------------------------------
d|-----------------------------------------------------------------
a|-----------------------------------------------------------------
D|-----------------------------------------------------------------

e|-----------------------------------------------------------------
b|-----------------------------------------------------------------
g|---x-14-14-14----------------------------------------------------
d|---x-------------------------------------------------------------
a|---x-12-12-12----------------------------------------------------
D|-----------------------------------------------------------------

fill
e|-----------------------------------------------------------------
b|-----------------------------------------------------------------
g|-----------------------------------------------------------------
d|-----------------------------------------------------------------
a|---0-0-0-0--------------------------(x lots)---------------------
D|---0-0-0-0-------------------------------------------------------

fill2
e|-----------------------------------------------------------------
b|--------------------------------------------------17-18----------
g|---14-14-14/17-17-17--14-14-14/19-19-19--14-14-14-------14-14-14-
d|--------------------------------------------------14-15----------
a|---12-12-12/15-15-15--12-12-12/17-17-17--12-12-12-------12-12-12-
D|-----------------------------------------------------------------

e|-----------------------------------------------------------------
b|-----------------------------------------------------------------
g|-----------------------------------------------------------------
d|---x-1-1-1-------------------------------------------------------
a|---x-1-1-1-------------------------------------------------------
D|---x-1-1-1-------------------------------------------------------

end
e|-----------------------------------------------------------------
b|-----------------------------------------------------------------
g|-----------------------------------------------------------------
d|---0-0-0-0-0-0-1-1-----------------------------------------------
a|---0-0-0-0-0-0-1-1-----------------------------------------------
D|---0-0-0-0-0-0-1-1-----------------------------------------------

PHEW!

=====================================================================

            
            
Suggest correction
Creating personal tab
Creating personal tab
You can edit any tab online and save it as your Personal.

You can edit, replace or remove any tab part or add personal notes – all changes will be seen only by you.

Personal tabs can be accessed anytime from any device, even offline.
Learn more »
comments
print report bad tab
3 comments total.
0 reply
Jordie92 31 Apr 10, 2007 03:02 AM

Great Tab to one of my fav Biff songs
Cheers

0 reply
niggel.n 292 Aug 26, 2008 09:59 AM

the part before the second chorus goes like this:

e|---------------
h|---------------
g|--10--1010-----
d|--x---x-x---0--
a|--7---7-7---0--
D|--8---8-8---0--

plus you can add the bass notes in the chorus:

chorus
e|-----------------------------------------------------------------
b|-----------------------------------------------------------------
g|---10-1010-10-1010-101010-10101010101010101010\7-7-7-14141414----
d|-----------------------------------------------------------------
a|---8--8-8--8--8-8--8-8-8--8-8-8-8-8-8-8-8-8-8-\5-5-5-12121212----
D|---0--0-0--0--0-0--0-0-0--9-9-9-9-9-9-9-9-9-9-\0-0-0-0-0-0-0-----

0 reply
Nattack_TGD 32 Sep 09, 2010 12:02 AM

Brilliant tab for an excellent song!
I'll agree with the guy above me "niggel.n" with his corrections, it does sound cooler with the bass notes when playing alone, but i guess the bassist himself would cover up for those when actually playing the song.

guest
Wanna post a correction for this tab? Suggest correction