Oops, an error
Loading. Please wait.
We have an official The Captain tab made by UG professional guitarists. Check out the tab »
×
21,910 views 6 this week
7 commentsread comments
1 2 3 4 5
x 5
add to favorites
×
Save as Personal and add changes to this tab that will be seen only by you. Learn more ›
×
You can save this tab as Personal to edit and correct it or add notes. All changes will be seen only by you. Learn more »
launch autoscroll
font size
0
reset
guitar tuner
edit
Autoscroll
slow
fast
+/-
esc
set tempo
stop
Intro
F----------------------|
C----------------------|
G----------------------|
C-15-14-13-12-11-10-0~-|

F--------------------------------------------------------|
C--------------------------------------------------------|
G--------------------------------------------------------| X2
C-12-0-0-12-0-0-12-0-0-15-12-0-0-12-0-0-12-0-0-15-14-13--|


F-------------|
C-------------|
G-------------|
C-12-11-10----|


F-------------|
C-------------|
G-------------|
C-0-0-5-7-----|
 [Let Ring]
Verse

F------------------------------------------------------|
C------------------------------------------------------| X4
G------------------------------------------------------|
C-12-0-0-12-0-0-12-0-0-12-0-0-5-5-5-5-5-5-7-7-7-7-7-7--|

Pre-Chorus
F----------------|
C----------------|
G----------------| X2
C-/12-\5-/12-\7--|

Chorus
F--------------------------------------------------|
C--------------------------------------------------| X2
G--------------------------------------------------|  
C-0x12-7x12-9x12-7x12------------------------------|

Chorus Part 2
F---------------------|
C---------------------|
G---------------------|
C-0x12-5x12-0x12-5x12-|

Repeat Verse x4
Pre Chorus 2 - No Bass
Chorus 2

F----------------------|
C----------------------| X2
G----------------------|
C-0x12-7x12-9x12-7x12--|

F-------------------------------|
C-------------------------------| X4
G-------------------------------|
C-0x12-7x12-9x12-7x7-5-5-5-5-5--|

F--------------------------------------------------------|
C--------------------------------------------------------|
G--------------------------------------------------------| X2
C-12-0-0-12-0-0-12-0-0-15-12-0-0-12-0-0-12-0-0-15-14-13--|

F--------------------------|
C--------------------------|
G--------------------------|
C-12-0-0-12-0-0-12-0-0-15~-|

            
            
Suggest correction
Creating personal tab
Creating personal tab
You can edit any tab online and save it as your Personal.

You can edit, replace or remove any tab part or add personal notes – all changes will be seen only by you.

Personal tabs can be accessed anytime from any device, even offline.
Learn more »
comments
print report bad tab
7 comments total. Showing first comments.
+1 reply
Ramstien 30 Dec 05, 2009 08:34 PM

Very accurate. Except on the intro riff, the low D# should be played on fret 15, not 3.

0 reply
Wil182 52 Mar 26, 2010 02:46 AM

Thanks Man . i Will Correct The Intro then :)

0 reply
AlexCowley 60 Mar 05, 2011 05:53 AM

Hey dude, don't they play the acoustic version in a different key? I'm pretty sure it's in A...?

So the main riffy thing would be:


A-|-12-0-0-12-0-0-12-0-0-12-0-0-555555-777777-|-
[/tab

guest
You may want to rate the tab now too:
select rating
Wanna post a correction for this tab? Suggest correction