Oops, an error
Loading. Please wait.
We have an official The Captain tab made by UG professional guitarists. Check out the tab »
×
4,607 views 12 this week
no commentswrite comment
1 2 3 4 5
x 5
add to favorites
×
Save as Personal and add changes to this tab that will be seen only by you. Learn more ›
×
You can save this tab as Personal to edit and correct it or add notes. All changes will be seen only by you. Learn more »
launch autoscroll
font size
0
reset
guitar tuner
edit
Autoscroll
slow
fast
+/-
esc
set tempo
stop
Author
ARTIST: Biffy Clyro
SONG: The Captain
ALBUM: Only Revolutions (2009)
-----------------------------------------|
-----------------------------------------|
Tabbed this out in standard, as I'm sure
I'm not the only one who hates odd tunings.
-----------------------------------------|
-----------------------------------------|

Intro 1
G----------------------|
D-13-12-11-10----------|
A-------------13-12----|
E--------------------8-|

Intro 2
G|---------------------------------------------------------|
D|*10-----10-----10---------*---------*--------------------|
A|*-------------------------*---------*--------------8--10-|
E|----8-8----8-8----8-8-11~---11-10-9---8-7-6--8--8--------|

Verse
G|------------------------------------------------------------|
D|*10-----10-----10-----10-----------------------------------*|
A|*----------------------------8-8-8-8-8-8-10-10-10-10-10-10-*|
E|----8-8----8-8----8-8----8-8--------------------------------|

Pre-chorus
G|------------------|
D|*----------------*|
A|*15--\8--/15--\10*|
E|------------------|

Chorus 1
G|-------------------------------------------------------------|
D|*------------------------------------------------------------|
A|*------------------------10-10-10-10-10-10-10-10-10-10-10-10-|
E|-8-8-8-8-8-8-8-8-8-8-8-8-------------------------------------|

G|-------------------------------------------------------------------------|
D|------------------------------------------------------------------------*|
A|-12-12-12-12-12-12-12-12-12-12-12-12-10-10-10-10-10-10-10-10-10-10-10-10*|
E|-------------------------------------------------------------------------|

Chorus 2
G|-------------------------------------------------|
D|-------------------------------------------------|
A|-------------------------8-8-8-8-8-8-8-8-8-8-8-8-|
E|-8-8-8-8-8-8-8-8-8-8-8-8-------------------------|

Verse

Rest

Chorus1

Chorus 3
G|---------------------------------------------------------------------------------|
D|---------------------------------------------------------------------------------|
A|-------------------------10-10-10-10-10-10-10-10-10-10-10-10-12-12-12-12-12-12-12|
E|-8-8-8-8-8-8-8-8-8-8-8-8---------------------------------------------------------|

----------------------------|
----------------------------|
-12-12-12-12-12-8-8-8-8-8-8-|
----------------------------|


Intro 2 until end, slow down.

-----------------------------------------|
-----------------------------------------|
| /  slide up
| \  slide down
| h  hammer-on
| b  bend note
| p  pull-off
| ~  let ring
| +  harmonic
| x  mute note
| s  slap note
| *  repeat section

            
            
Suggest correction
Creating personal tab
Creating personal tab
You can edit any tab online and save it as your Personal.

You can edit, replace or remove any tab part or add personal notes – all changes will be seen only by you.

Personal tabs can be accessed anytime from any device, even offline.
Learn more »
comments
print report bad tab
guest
You may want to rate the tab now too:
select rating
Wanna post a correction for this tab? Suggest correction