Oops, an error
Loading. Please wait.

The Jokes On Us bass

version 1
version 1

Whole song

Interactive

3,542 views 3 this week
2 commentsread comments
1 2 3 4 5
x 3
add to favorites
×
Save as Personal and add changes to this tab that will be seen only by you. Learn more ›
×
You can save this tab as Personal to edit and correct it or add notes. All changes will be seen only by you. Learn more »
launch autoscroll
font size
0
reset
guitar tuner
edit
Autoscroll
slow
fast
+/-
esc
set tempo
stop
Author
-------------------------------------------------------------------------------
                             The Joke's On Us - Biffy Clyro
-------------------------------------------------------------------------------
Tabbed by: Alex Hather
E-mail: agingeryeti@hotmail.co.uk

Tuning: Standard

Intro

G|---------------------------------------------------------------------------|
D|---------------------------------------------------------------------------|
A|--6--6--6--6--6--6--6--6--6--6--6------------------------------------------|
E|---------------------------------------------------------------------------|

Verse

G|---------------------------------------------------------------------------|
D|---------------------------------------------------------------------------| x6
A|--6--6-6-6-6-6-6-6-8-8-8-4-4-4-4-------------------------------------------|
E|---------------------------------------------------------------------------|

G|---------------------------------------------------------------------------|
D|---------------------------------------------------------------------------|
A|--(2x8)---(9x8)---(2x8)---(9x4)---(4x4)---(2x8)---(9x8)---(4x16)-----------|
E|---------------------------------------------------------------------------|

Pre-Chorus       
G|---------------------------------------------------------------------------|
D|---------------------------------------------------------------------------| x2
A|--66-6-66-6-666-44-4-44-4-444-22-2-22-2-222--------------------------------| 
E|--------------------------------------------22-2-22-2-222------------------|

Chorus

G|---------------------------------------------------------------------------|
D|---------------------------------------------------------------------------|
A|--(6x16)--(9x16)--(2x16)--(6x13)--(4x3)--(9x16)--(14x16)--(6x16)--(4x16)---|
E|---------------------------------------------------------------------------|

Verse

G|---------------------------------------------------------------------------|
D|---------------------------------------------------------------------------| x3
A|--6--6-6-6-6-6-6-6-8-8-8-4-4-4-4-------------------------------------------|
E|---------------------------------------------------------------------------|

G|---------------------------------------------------------------------------|
D|---------------------------------------------------------------------------|
A|--(2x8)---(9x8)---(2x8)---(9x4)---(4x4)---(2x8)---(9x8)---(4x16)-----------|
E|---------------------------------------------------------------------------|

Pre-Chorus

G|---------------------------------------------------------------------------|
D|---------------------------------------------------------------------------| x2
A|--66-6-66-6-666-44-4-44-4-444-22-2-22-2-222--------------------------------| 
E|--------------------------------------------22-2-22-2-222------------------|

Chorus

G|---------------------------------------------------------------------------|
D|---------------------------------------------------------------------------|
A|--(6x16)--(9x16)--(2x16)--(6x13)--(4x3)--(9x16)--(14x16)--(6x16)--(4x16)---|
E|---------------------------------------------------------------------------|

Bridge Pt. 1

G|---------------------------------------------------------------------------|
D|---------------------------------------------------------------------------|
A|--6--6--6--6---6--6--6--6---2--2--2--2---2--2--2--2------------------------|
E|---------------------------------------------------------------------------|

G|---------------------------------------------------------------------------|
D|---------------------------------------------------------------------------|
A|--6--6--6--6-(4x8)--6--6--6--6-(4x8)--2--2--2--2-(11x8)--2--2--2--2-(11x8)-|
E|---------------------------------------------------------------------------|

Bridge Pt. 2

G|---------------------------------------------------------------------------|
D|---------------------------------------------------------------------------| x2
A|------------------------6--6--6--4-4-4-4-4-4-------------------------------|
E|--2--2--2--4-4-4-4-4-4-----------------------------------------------------|

Bridge Pt. 3

G|---------------------------------------------------------------------------|
D|---------------------------------------------------------------------------| x4
A|--2--2--2--2--2--2--2--2---------------------------------------------------|
E|---------------------------------------------------------------------------|

Chorus

G|---------------------------------------------------------------------------|
D|---------------------------------------------------------------------------|
A|--6~~--(9x16)--(2x16)--(6x13)--(4x3)--(9x16)--(14x16)--(6x16)--(4x16)------|
E|---------------------------------------------------------------------------|

Outro

G|---------------------------------------------------------------------------|
D|---------------------------------------------------------------------------| 
A|--6--6--6--6---------------------------------------------------------------|
E|---------------------------------------------------------------------------|

| /  slide up
| \  slide down
| h  hammer-on
| p  pull-off
| ~  vibrato
| +  harmonic
| x  Mute note
===============================================================================
Suggest correction
Creating personal tab
Creating personal tab
You can edit any tab online and save it as your Personal.

You can edit, replace or remove any tab part or add personal notes – all changes will be seen only by you.

Personal tabs can be accessed anytime from any device, even offline.
Learn more »
Give kudos to tab author, rate the tab!
1 2 3 4 5
comments
print report bad tab
2 comments total.
0 reply
A GingerYeti 71 Feb 16, 2013 09:48 AM

Bridge Pt. 3 should actually be played A--9-9-9-9-2-2-2-2

0 reply
A GingerYeti 71 Feb 16, 2013 01:27 PM

Just listened to it again and figured out it's actually just 2-2-2-2-2-2-2-2-2-2-2-2 at bridge Pt. 3

guest
You may want to rate the tab now too:
select rating
Wanna post a correction for this tab? Suggest correction