Oops, an error
Loading. Please wait.

The Jokes On Us Bass Tab

version 2
version 2

Whole song

Interactive

202 views 1 this week
no commentswrite comment
1 2 3 4 5
please rate
add to favorites
launch autoscroll
font size
0
reset
guitar tuner
Tab Pro tools
  • play this tab
  • loop segment
  • change instrument
  • show fretboard
  • metronome
Autoscroll
slow
fast
+/-
esc
set tempo
stop
Contributor
Difficulty
intermediate
-----------------------------------------------------------------------------
                  THE JOKES ON US - Biffy Clyro
-----------------------------------------------------------------------------
Tabbed by: SavagePigBass
E-mail: savagepig123@gmail.com

Tuning: Drop D (DADG)

Intro:
G|------------------------|
D|------------------------| (Slap)
A|-6-6-6-6-6-6-6-6-6-6-6-6|  (x1)
E|------------------------|

G|----------------------------------------|
D|----------------------------------------| (Dubble slap or finger pick) 
A|-6-6-6-6-6-6-6-6---8-8-8-8-8-8---4-4-4-4|             (x2)
E|----------------------------------------|

Verse:


G|----------------------------------------|
D|----------------------------------------| (Dubble slap or finger pick) 
A|-6-6-6-6-6-6-6-6---8-8-8-8-8-8---4-4-4-4|              (x4)
E|----------------------------------------| 

G|----------------------------------|
D|----------------------------------| (Dubble slap or finger pick)
A|-2-2-2-2-2-2-2-2---9-9-9-9-9-9-9-9|             (x2)
E|----------------------------------|

G|------------------------------------------------|
D|------------------------------------------------| (Finger pick)
A|-2-2-2-2-2-2-2-2---9-9-9-9-9-9-9-9---6-6-6-6-236|      (x1)
E|------------------------------------------------|

Pre-Verse

G|------9-----9---9-----7-----7---7-----5------5--5---------------|
D|-----------------------------------------------------5-----5---5| 
A|-7777--7777--77---5555--5555--55--3333--3333--33----------------| (x2)
E|-------------------------------------------------3333--3333-33--|

                       (Pop and Slap)
                             (X2)


Chorus:

G|----------------------------------------------4----------8--------------|
D|------------------------------------------------------------------------|
A|------------------------------------------------------------------------|
E|-00000000-222222222-77777777-0000000-2222222---77777777---0000000-7777/1|

                         (Finger pick)
                              (X2)


Verse: 

Pre-Chorus:

G|-----9-----9---9-----7------7--------5-----5----5--------------------|
D|------------------------------------------------------5----5--5------|
A|-7777--7777--77--5555--5555--55--3333--3333--33----------------------|
E|--------------------------------------------------3333-3333-33--33333|
                      (Slap and Pop)
                           (X1)
Chorus:

G|------------------------------------------|
D|------------------------------------------| (Finger pick)
A|------------------------------------------|      (x1)
E|-000000000-2222222222-777777777-0000000000|

G|--------------------4-------8---------6--6-6-6-6-6-|
D|---------------------------------------------------|(Finger pick & strum)
A|-----------------------------------------4-4-4-4-4-|           (x1)
E|-000000000-22222222--7777777--0000000--------------|

Instrumental:

G|--------|
D|--------| (Slap)
A|-6-6-6-6|  (x2)
E|--------|

G|--------|
D|--------| (Slap)
A|-2-2-2-2|  (x2)
E|--------|

(Repeat these two above)

Bridge:

G|--------------------------------------|
D|--------------------------------------| (Finger pick)
A|-2222222-4444444-77777777-999999999---|      (x2)
E|--------------------------------------|

G|-------4|
D|--------| (Slap and pop)
A|-22222--|      (x8)
E|--------|


Chorus:


| /  slide up
| \  slide down
| h  hammer-on
| p  pull-off
| ~  vibrato
| +  harmonic
| x  Mute note
==========================================================================

comments
We did not receive enough feedback on this tab! Please rate:
print report bad tab
1 2 3 4 5
I want to post or [tab]
guest
You may want to rate the tab now too:
select rating
Please do not post tabs as comments. Select "correction" instead!