Oops, an error
Loading. Please wait.

The Thaw Tab

version 1
version 1

Whole song

Interactive

7,598 views 15 this week
no commentswrite comment
1 2 3 4 5
accurate
x 3
add to favorites
launch autoscroll
font size
0
reset
how to read this tab
guitar tuner
Autoscroll
slow
fast
+/-
esc
set tempo
stop
Help us to improve Ultimate-Guitar.com Take our survey!
×
Contributor
pakopako 1,322
Tuning: Drop Db

Intro - part 1 x4

|--------------------------------------------------|
|-------0------0-----------------------------------|
|---5-------5----5---------------------------------|
|-----5-------5------------------------------------|
|--------------------------------------------------|
|-5-------5----------------------------------------|

Intro - part 2 x2

Guitar 1

|--------------------------------------------------|
|-------0------0----------0--------0---------------|
|---5-------5----5----5--------5-----5-------------|
|-----5-------5---------5--------5-----------------|
|--5------3----------------------------------------|
|-------------------5-------5----------------------|

Guitar 2

|--15----------------------------------------------|
|------15--12b-------------------------------------|
|--------------------------------------------------|
|--------------------------------------------------|
|--------------------------------------------------|
|--------------------------------------------------|

Verse - No Guitar

Chorus

|------------------------------------------------------------|
|-------------------------0-----0----------------------------|
|-9-9-9-11-11-11-12----5-----5-------------------------------|
|-x-x-x-x--x--x--x-------5-----5-----------------------------|
|-7-7-7-9--9--9--10------------------------------------------|
|--------------------5------5--------------------------------|

|------------------------------------------------------------|
|----------------------0-------0-----------------------------|
|-11-11-11-11-11---5-------5-----5---------------------------|
|-x--x--x--x--x------5-------5-------------------------------|
|-9--9--9--9--9----------------------------------------------|
|----------------2-------2-----------------------------------|

|------------------------------------------------------------|
|-------------------------0-----0----------------------------|
|-9-9-9-11-11-11-12----5-----5-------------------------------|
|-x-x-x-x--x--x--x-------5-----5-----------------------------|
|-7-7-7-9--9--9--10------------------------------------------|
|--------------------5------5--------------------------------|

|------------------------------------------------------------|
|-----------------------0------0-----------------------------|
|-11-11-11-9-9-9----5------5---------------------------------|
|-x--x--x--x-x-x------5------5-------------------------------|
|-9--9--9--7-7-7---------------------------------------------|
|-----------------5-------5----------------------------------|

Verse

Guitar 2

|--15----------------------------------------------|
|------15--12b-------------------------------------|
|--------------------------------------------------|
|--------------------------------------------------|
|--------------------------------------------------|
|--------------------------------------------------|

Chorus (Distortion)

|-----------------------------------------------------------|
|-------------------------0---------------------------------|
|-9-9-9-11-11-11-12----5------------------------------------|  *=PM
|-x-x-x-x--x--x--x-------5----------------------------------|
|-7-7-7-9--9--9--10-----------------------------------------|
|--------------------5--------------------------------------|
  * * * *  * * * *

|------------------------------------------------------------|
|----------------------0-------0-----------------------------|
|-11-11-11-11-11---5-------5-----5---------------------------|
|-x--x--x--x--x------5-------5-------------------------------|
|-9--9--9--9--9----------------------------------------------|
|----------------2-------2-----------------------------------|
  *  *  *  *  *

|------------------------------------------------------------|
|-------------------------0-----0----------------------------|
|-9-9-9-11-11-11-12----5-----5-------------------------------|
|-x-x-x-x--x--x--x-------5-----5-----------------------------|
|-7-7-7-9--9--9--10------------------------------------------|
|--------------------5------5--------------------------------|

|------------------------------------------------------------|
|------------------------------------------------------------|
|-11-11-11-11-12-12-12-12------------------------------------|
|-x--x--x--x--x--x--x--x-------------------------------------|
|-9--9--9--9--10-10-10-10------------------------------------|
|------------------------------------------------------------|

Bridge

|-------------------------------------------------------|
|-------------------------------------------------------|
|-------------------------------------------------------|
|-2-0-2-0-5-7-9-0-0-0-0-0-0-0---------------------------|  x3
|-2-0-2-0-5-7-9-0-0-0-0-0-0-0---------------------------|
|-2-0-2-0-5-7-9-0-0-0-0-0-0-0---------------------------|

|-----------------------------------------|
|-----------------------------------------|
|-----------------------------------------|
|-2-0-2-0-5-7-9---------------------------|
|-2-0-2-0-5-7-9---------------------------|
|-2-0-2-0-5-7-9---------------------------|


|------------------------------------------------------------|
|------------------------------------------------------------|
|--7------9------7------5------------------------------------|
|--5------9-x16--7-x16--5-x16--------------------------------|  x4
|--5-x16--7------5------3------------------------------------|
|--5---------------------------------------------------------|

Repeat Intro part 1 & 2
comments
We did not receive enough feedback on this tab! Please rate:
print report bad tab
1 2 3 4 5
I want to post or [tab]
guest
You may want to rate the tab now too:
select rating
Please do not post tabs as comments. Select "correction" instead!