Oops, an error
Loading. Please wait.

There Is No Such Thing As A Jaggy Snake tab

version 2
version 2

Whole song

  • First tab with correct intro/verse part and better chord voicing throughout.
613 views 6 this week
1 commentread comment
1 2 3 4 5
x 3
add to favorites
×
Save as Personal and add changes to this tab that will be seen only by you. Learn more ›
×
You can save this tab as Personal to edit and correct it or add notes. All changes will be seen only by you. Learn more »
launch autoscroll
font size
0
reset
how to read this tab
guitar tuner
edit
Autoscroll
slow
fast
+/-
esc
set tempo
stop
About this tab version
First tab with correct intro/verse part and better chord voicing throughout. Was this info helpful? Yes No
Biffy Clyro - There's No Such Thing As A Jaggy Snake

Album: Infinity Land    
Tuning: Drop D


[Intro]

E|-------------------------------------------------------------------|
B|-------10-11-10----------------------------------------------------|
G|-10-11----------11-10\8\5----5----5----3-5/6/8-6-5\3p0-2----2----2-|
D|-------------------------------------------------------0----0----0-|
A|-------------------------------------------------------------------|
D|-------------------------------------------------------------------|

E|-------------------------------------------------------|
B|-------10-11-10----------------------------------------|
G|-10-11----------11-10\8\5----5----5----3-5/6/8-6-5\3p0-|
D|-------------------------------------------------------|
A|-------------------------------------------------------|
D|-------------------------------------------------------|


[Main Riff]

E|-----------------------------------------|
B|-------------------0---------------------|
G|-2-2-2-2-2-2-2-3/4-0-2-2-2-2-2-2-2-------|
D|-0-0---0---0-------0-0-0---0---0---4-4-4-|     
A|-0-0-4---3---4-------0-0-4---3---4-4-4-4-|
D|-0-0---3---3---------0-0---3---3---4-4-4-|(x2)


[Part A]

E|---------------------------------------------|
B|-------------------------------------0-0-0-0-|
G|-2----2-2-------2-2---2----2-2---------------|
D|-0----0-0-------------0----0-0-------2-3-4-4-|
A|-0----0-0-------4p3p0----------------2-3-4-4-|
D|-0----0-0-------------3----3-3-------2-3-4-4-|

E|-------------------------------------|
B|-------------------------------------|
G|-0----0-0----0-0-0----0-0-0----0-0-0-|
D|-------------------------------------|
A|-3----3-3----3-3-3----4-4-4----4-4-4-|
D|-------------------------------------|

E|---------------------------------------------|
B|-------------------------------------0-0-0-0-|
G|-2----2-2-------2-2---2----2-2---------------|
D|-0----0-0-------------0----0-0-------2-3-4-4-|
A|-0----0-0-------4p3p0----------------2-3-4-4-|
D|-0----0-0-------------3----3-3-------2-3-4-4-|

E|-------------------------------------|
B|-------------------------------------|
G|-0----0-0----0-0-0----0-0-0----0-0-0-|
D|-------------------------------------|
A|-3----3-3----3-3-3----3-3-3----3-3-3-|
D|-------------------------------------|


[Main Riff]

E|-----------------------------------------|
B|-------------------0---------------------|
G|-2-2-2-2-2-2-2-3/4-0-2-2-2-2-2-2-2-------|
D|-0-0---0---0-------0-0-0---0---0---4-4-4-|     
A|-0-0-4---3---4-------0-0-4---3---4-4-4-4-|
D|-0-0---3---3---------0-0---3---3---4-4-4-|(x2)


[Part A]

E|---------------------------------------------|
B|-------------------------------------0-0-0-0-|
G|-2----2-2-------2-2---2----2-2---------------|
D|-0----0-0-------------0----0-0-------2-3-4-4-|
A|-0----0-0-------4p3p0----------------2-3-4-4-|
D|-0----0-0-------------3----3-3-------2-3-4-4-|

E|-------------------------------------|
B|-------------------------------------|
G|-0----0-0----0-0-0----0-0-0----0-0-0-|
D|-------------------------------------|
A|-3----3-3----3-3-3----4-4-4----4-4-4-|
D|-------------------------------------|

E|---------------------------------------------|
B|-------------------------------------0-0-0-0-|
G|-2----2-2-------2-2---2----2-2---------------|
D|-0----0-0-------------0----0-0-------2-3-4-4-|
A|-0----0-0-------4p3p0----------------2-3-4-4-|
D|-0----0-0-------------3----3-3-------2-3-4-4-|


[Bridge]

E|-------------------------------------|
B|-------------------------------------|
G|-0----0-0----0-0-0----0-0-0----0-0-0-|
D|-------------------------------------|
A|-3----3-3----3-3-3----3-3-3----3-3-3-|
D|-------------------------------------|

E|-------------------------------------|
B|-------------------------------------|
G|-0----0-0----0-0-0----0-0-0----0-0-0-|
D|-0----0-0----0-0-0----0-0-0----0-0-0-|
A|-------------------------------------|
D|-5----5-5----5-5-5----5-5-5----5-5-5-|

E|-------------------|
B|-------------------|
G|-5-5-5-------7-7-7-|
D|-5-5-5-------7-7-7-|
A|-3-3-3-------5-5-5-|
D|-------------------|


[Interlude]

E|-------------------------------------------------------------------|
B|-------10-11-10----------------------------------------------------|
G|-10-11----------11-10\8\5----5----5----3-5/6/8-6-5\3p0-2----2----2-|
D|-------------------------------------------------------0----0----0-|
A|-------------------------------------------------------------------|
D|-------------------------------------------------------------------|

E|-------------------------------------------------------|
B|-------10-11-10----------------------------------------|
G|-10-11----------11-10\8\5----5----5----3-5/6/8-6-5\3p0-|
D|-------------------------------------------------------|
A|-------------------------------------------------------|
D|-------------------------------------------------------|

E|-----------------|
B|-----------------|
G|-2-2-2-2-2-2-2-2-|
D|-0-0-0-0-0-0-0-0-|
A|-----------------|
D|-----------------|


[Part B]

E|---------------------------------|
B|---------------------------------|
G|-2-2-2-2-2-2-2-2-2-2-2-2-2-2-2-2-|
D|-0-0-0-0-0-0-0-0-0-0-0-0-0-0-0-0-|
A|---------------------------------|
D|-5-5-5-5-5-5-5-5-5-5-5-5-5-5-5-5-|

E|---------------------------------|
B|---------------------------------|
G|-2-2-2-2-2-2-2-2-2-2-2-2-2-2-2-2-|
D|-0-0-0-0-0-0-0-0-0-0-4-0-4-0-4-0-|
A|-5-5-5-5-5-5-5-5-5-5-5-5-5-5-5-5-|
D|---------------------------------|

E|---------------------------------|
B|---------------------------------|
G|-2-2-2-2-2-2-2-2-2-2-2-2-2-2-2-2-|
D|-0-0-0-0-0-0-0-0-0-0-0-0-0-0-0-0-|
A|---------------------------------|
D|-5-5-5-5-5-5-5-5-5-5-5-5-5-5-5-5-|


[Part C]

E|----------------------------|
B|----------------------------|
G|-15-14----12----15-14----12-|
D|----------------------------| 
A|----------------------------|
D|----------------------------|(x4)

E|--------------------------|
B|--------------------------|
G|--------------------------|
D|--------------------------|  
A|--------------------------|
D|-20-19----0----20-19----0-|(x2)

E|----------------------------|
B|----------------------------|
G|-15-14----12----15-14----12-|
D|----------------------------| 
A|----------------------------|
D|----------------------------|(x4)

E|--------------------------|
B|--------------------------|
G|--------------------------|
D|--------------------------|
A|--------------------------|
D|-20-19----0----20-19----0-|(x2)

E|----------------------------|
B|----------------------------|
G|-15-14----12----15-14----12-|
D|----------------------------|  
A|----------------------------|
D|----------------------------|(x4)

E|--------------------------|
B|--------------------------|
G|--------------------------|
D|--------------------------|
A|--------------------------|
D|-20-19----0----20-19----0-|(x2)


[Chorus]

E|----------------------------------------------------------------------------------------------------|
B|----------------------------------------------------------------------------------------------------|
G|-7-7-7-7----7-7-7-7----6-6-6-7-------------10-10-10-10----10-10-10-10----10-10-10-10----10-10-10-10-|
D|-0-0-0-0----0-0-0-0----------0-------------10-10-10-10----10-10-10-10----10-10-10-10----10-10-10-10-|   
A|-----------------------4-4-4------8-8-8----8--8--8--8-----8--8--8--8-----8--8--8--8-----8--8--8--8--|
D|-5-5-5-5----5-5-5-5----5-5-5-5----5-5-5----------------------------------8--8--8--8-----8--8--8--8--|(x2)


[Part C]

E|----------------------------|
B|----------------------------|
G|-15-14----12----15-14----12-|
D|----------------------------|  
A|----------------------------|
D|----------------------------|(x4)

E|--------------------------|
B|--------------------------|
G|--------------------------|
D|--------------------------|    
A|--------------------------|
D|-20-19----0----20-19----0-|(x2)

[Break]


[Part C]

E|----------------------------|
B|----------------------------|
G|-15-14----12----15-14----12-|
D|----------------------------| 
A|----------------------------|
D|----------------------------|(x4)

E|--------------------------|
B|--------------------------|
G|--------------------------|
D|--------------------------|  
A|--------------------------|
D|-20-19----0----20-19----0-|(x2)


[Part C Harmony]

E|----------------------------|
B|----------------------------|
G|-19-17----15----19-17----15-|
D|----------------------------|  
A|----------------------------|
D|----------------------------|(x4)

E|--------------------------|
B|--------------------------|
G|--------------------------|
D|--------------------------|  
A|--------------------------|
D|-20-19----0----20-19----0-|(x2)


[Chorus]

E|----------------------------------------------------------------------------------------------------|
B|----------------------------------------------------------------------------------------------------|
G|-7-7-7-7----7-7-7-7----6-6-6-7-------------10-10-10-10----10-10-10-10----10-10-10-10----10-10-10-10-|
D|-0-0-0-0----0-0-0-0----------0-------------10-10-10-10----10-10-10-10----10-10-10-10----10-10-10-10-|   
A|-----------------------4-4-4------8-8-8----8--8--8--8-----8--8--8--8-----8--8--8--8-----8--8--8--8--|
D|-5-5-5-5----5-5-5-5----5-5-5-5----5-5-5----------------------------------8--8--8--8-----8--8--8--8--|(x4)


[Part D]

E|------------------|
B|------------------|
G|-----9-9-----9-10-|
D|-0-0-----0-0------|      
A|-0-0-7-7-0-0-7-8--|
D|-0-0-----0-0------|(x4)


[Part D Harmony] 

(on the third time around)
E|---------------------|
B|---------------------|
G|-----12-12-----12-14-|
D|-0-0-------0-0-------| 
A|-0-0-10-10-0-0-10-12-|
D|-0-0-------0-0-------|(x2)


[Part E]

E|---------------------|
B|-------5---------5/6-|
G|-------5---------5-5-|
D|---------------------|      
A|-------5---------5-5-|
D|-0-0-0---0-0-0-0-----|(x4)

E|-------0--------------0-------0-0-0-------------0-|
B|-------3--------------3-------3-3-3-------------3-|
G|-------5--------------5-------5-5-5-------------5-|
D|-------5--------------5-------5-5-5-------------5-|
A|-0-0-0---------0----0---------------------0-0-0---|
D|--------------------------------------------------|

E|---------------------|
B|-------5---------5/6-|
G|-------5---------5-5-|
D|---------------------|     
A|-------5---------5-5-|
D|-0-0-0---0-0-0-0-----|(x4)

E|-------0--------------0-------0-0-0-------------0-|
B|-------3--------------3-------3-3-3-------------3-|
G|-------5--------------5-------5-5-5-------------5-|
D|-------5--------------5-------5-5-5-------------5-|
A|-0-0-0---------0----0---------------------0-0-0---|
D|--------------------------------------------------|


[Part E Loud]

E|---------------------|
B|-------5---5-----5/6-|
G|-------5---5-----5-5-|
D|---------------------|      
A|-------5---5-----5-5-|
D|-0---0-------0-0-----|(x4)

E|-------0--------------0-------0-0-0-------------0-|
B|-------3--------------3-------3-3-3-------------3-|
G|-------5--------------5-------5-5-5-------------5-|
D|-------5--------------5-------5-5-5-------------5-|
A|-0-0-0---------0----0---------------------0-0-0---|
D|--------------------------------------------------|


[Part F]

E|---------------------------------------0-0-0-0----0-0-0-0-----------------------|
B|-5-------5-------5-5-5-5----5-5-5-5----3-3-3-3----3-3-3-3----3-3-3-3----3-3-3-3-|
G|-5-------5-------5-5-5-5----5-5-5-5----5-5-5-5----5-5-5-5----5-5-5-5----5-5-5-5-|
D|-0-------0-------3-3-3-3----3-3-3-3----5-5-5-5----5-5-5-5----5-5-5-5----5-5-5-5-|   
A|-0-------0-------3-3-3-3----3-3-3-3----0-0-0-0----0-0-0-0-----------------------|
D|-0-------0-------3-3-3-3----3-3-3-3--------------------------5-5-5-5----5-5-5-5-|(x4)


[Noise]


[Outro]

E|-------------------------------------------------------------------------------------------------|
B|-------------------------------------------------------------------------------------------------|
G|-----------------------9--------9-9--------9-9----------9-9----------9-9-----9--------9-9-----10-|
D|-0-------0-0-------0-0------0-0--------0-0-----0----0-0-----0----0-0-----0-0------0-0-----0-0----|
A|-0-------0-0-------0-0-7----0-0-7-7----0-0-7-7-0----0-0-7-7-0----0-0-7-7-0-0-7----0-0-7-7-0-0-8--|
D|-0-------0-0-------0-0------0-0--------0-0-----0----0-0-----0----0-0-----0-0------0-0-----0-0----|


************************************

| p  Pull-off
| /  Slide up
| \  Slide down

************************************

            
            
Suggest correction
Creating personal tab
Creating personal tab
You can edit any tab online and save it as your Personal.

You can edit, replace or remove any tab part or add personal notes – all changes will be seen only by you.

Personal tabs can be accessed anytime from any device, even offline.
Learn more »
Give kudos to tab author, rate the tab!
1 2 3 4 5
comments
print report bad tab
1 comment total.
+1 reply
joshuahughes34 2,043 Aug 24, 2016 08:02 AM

best jaggy snake tab ive seen! nice job

guest
You may want to rate the tab now too:
select rating
Wanna post a correction for this tab? Suggest correction